.

banners

Tablatura fácil de... Judgement day. Dragonforce.



  Los ingleses DRAGONFORCE acaban de estrenar el primer single, “Judgement Day”  de lo que será su próximo trabajo, que saldrá a la luz el 19 de Mayo de éste año y que llevará por título, “Reaching Into Infinity”.
 El bajista, en unas declaraciones, comentaba el significado de “Reaching Into Infinity”:
  “El título del álbum explica lo que tratamos de hacer con nuestra música. El mundo actual está realmente loco. Hay miedo del futuro, incertidumbre. Pero el poder de la música es infinito, y puede dar fuerza y esperanza a la gente”.

  En Tablaturas fáciles te queremos dejar un momento en tablatura del inicio del tema "Judgement day".
  Un saludo.
  TabsFácil.




Judgement day. Dragonforce.


1.----------------------------|
2.----------------------------|
3.---11--7--------------------|
4.-9--------9-----11--7-------|
5.-------------9---------9--10|
6.----------------------------|

1.--------------------------|
2.--------------------------|
3.----------------9---------|
4.-12--9-------------11--7--|
5.--------10--12------------|
6.--------------------------|

1.----------------------------|
2.----------------------------|
3.---11--7--------------------|
4.-9--------9-----11--7-------|
5.-------------9---------9--10|
6.----------------------------|

1.--------------------------|
2.--------------------------|
3.----------------9---------|
4.-12--9-------------11--7--|
5.--------10--12------------|
6.--------------------------|...





No hay comentarios:

Publicar un comentario