.

banners

Acordes de... La procesión de los borrachos. Débler.




    Grande era la expectación por ver la evolución en su segundo disco de los madrileños Débler, después del buen sabor de boca que nos dejara su ópera prima. 
  Con "Somnia" además se añadía el aliciente de que les producía Txus di Fellatio, por lo que la expectación creada, era aún mayor.
  Y "Somnia" no decepciona, bonitas letras, grandes músicos y ese toque más heavy en las voces que echábamos de menos en otras bandas, sin olvidar el toque Mägo de Oz que se nota, sobre todo en temas cómo "Somnia" y "La procesión de los borrachos" del que hoy os queremos dejar unos acordes para que practiques con la guitarra mientras pasáis un buen rato.
  Un saludo.
  TabsFácil.




La procesión de los borrachos. Débler.



Rem                             Do
  Si crees que la vida te ha tratado mal

La#                 La
y no dejas de llorar

Rem                             Do
Si el amor se escapa de tu corazón

La#                 La
y no se deja atrapar

Rem                             Do
Si cada mañana quieres ver el sol

La#                 La
pero se esconde de ti

Rem                             Do
Aparta las nubes y oye bien mi voz

La#                 La
tu tendrás lugar aquí

La#                   Do
No es un sitio normal

                La                   Rem
es una taberna que incita al pecado

Do                La#
sin poder parar

                    Do            La
Ven a gozar si pruebas la carne


sé que volverás

Fa                                       Do
Vamos a beber hasta el amanecer

Rem                            La#         Do
Vamos a gritar cómo si no hay mañana

Fa                                       Do
Disfrutemos juntos de todo el placer

Rem                            La#         Do       Fa
a ésta noche le queda mucho que ofrecer...


1.-------------------------------|
2.-10-----------10-10------------|
3.----10--10-12-------12-10-12-9-|
4.-------------------------------|
5.-------------------------------|
6.-------------------------------|

1.-------------------------------|
2.------------------10-----------|
3.-9-10-12-12--10-9----10--10-12-|
4.-------------------------------|
5.-------------------------------|
6.-------------------------------|

1.-------------------------------|
2.-10-10-------13-11-10-11-10----|
3.-------12-10----------------12-|
4.-------------------------------|
5.-------------------------------|
6.-------------------------------|

1.-------------------------------|
2.-10----------10-11--10---------|
3.----12-10-12-----------10--10-12
4.-------------------------------|
5.-------------------------------|
6.-------------------------------|

1.-------------------------------|
2.-10-10-------------------------|
3.-------12-10-12-9--9-10--12-12-|
4.-------------------------------|
5.-------------------------------|
6.-------------------------------|

1.-------------------------------|
2.---------------------10-11-13-10
3.-10-9--10-7--9-10-12-----------|
4.-------------------------------|
5.-------------------------------|
6.-------------------------------|

1.-----------|
2.-----------|
3.-12--10-10-|
4.-----------|
5.-----------|
6.-----------|...









No hay comentarios:

Publicar un comentario