.

banners

Tabs fácil de... Stardust. Bob Dylan.




   El cantautor estadounidense Bob Dylan nos presenta "Stardust", como adelanto de su próximo álbum "Triplicate". El clásico  ha sido interpretado por voces como la de Frank Sinatra, Willie Nelson y Ella Fitzgerald. 
   A apenas un día de la salida al mercado de su nuevo álbum, hoy en tablaturas fáciles os queremos dejar unos momentos en tablatura del inicio del tema con el que nos presenta su nueva obra.
  Un saludo. 
  TabsFácil.




Stardust. Bob Dylan.


1.--------------------------------|
2.-/7--7/8--8/9--9/10--8----------|
3.-----------------------9-9------|
4.---------------------------10/7-|
5.--------------------------------|
6.--------------------------------|

1.--------------------------------|
2.------10/12-12--/10-8--------10h8
3.----9-----------------8---------|
4.-10---------------------10-7----|
5.--------------------------------|
6.--------------------------------|

1.--------------------------------|
2.---8------12-----------8--------|
3.-7----/11----11-9----9---9-7-9--|
4.------------------9-------------|
5.--------------------------------|
6.--------------------------------|

1.--------------------------------|
2.--------------------------------|
3.----7---------------------------|
4.-10---7--9h10h9----12-11-10-----|
5.----------------12-----------10-|
6.--------------------------------|

1.--------------------------------|
2.--------------8--/12-------/10-8
3.----------7----------11-12------|
4.-7----7-9-----------------------|
5.---10---------------------------|
6.--------------------------------|

1.--------------------------------|
2.--------------------------------|
3.-9--7h9--5-7--4-5--------4-7-4--|
4.------------------4-5--5-------3
5.--------------------------------|
6.--------------------------------|

1.----------|
2.-------3--|
3.-2-5-2----|
4.----------|
5.----------|
6.----------|...


No hay comentarios:

Publicar un comentario