.

banners

Tabs fácil de... Peace trail. Neil Young.


     Nada más y nada menos que el álbum número 38 en la carrera de de éste músico canadiense, Neil Young grabó "Peace trail" en apenas cuatro días con otros dos músicos más. "Peace trail" salió a la luz en diciembre pasado y hoy queremos rescatar para tablaturas fáciles, un momento en tablatura del tema que da título al álbum y del que recientemente lanzaba un video clip.
   Hoy en tablaturas fáciles Neil Young.
  Un saludo.
  Tabsfácil.




Peace trail. Neil Young.


(0:24)

1.----------------------|
2.-3/5-3----------------|
3.--------5-4--2-2-/4---|
4.--------------------2-|
5.----------------------|
6.----------------------|

1.----------------------|
2.----------------------|
3.--------0--0----------|
4.-2--2/4------4-0-2----|
5.----------------------|
6.----------------------|

1.----------------------|
2.----------------------|
3.-2/4-0-2--0--------0--|
4.------------2--0-2----2
5.----------------------|
6.----------------------|...


(2:34)

1.----------------------|
2.-3/5--5-3------3------|
3.----------5-4----4----|
4.----------------------|
5.----------------------|
6.----------------------|

1.-------------------------|
2.-16(17)-(17)16-----------|
3.---------------2(4)(2)-0-0
4.-------------------------|
5.-------------------------|
6.-------------------------|

1.-------------------------------|
2.----------------------------1--0
3.---------0-0-2-2/4-0--------0--0
4.-0h2-0-2-------------2--0h2-2--2
5.----------------------------3--2
6.-------------------------------0

1.-------------------|
2.-------------------|
3.--------------0----|
4.----------0-2---2--|
5.-2h3--2-3----------|
6.-------------------|...






No hay comentarios:

Publicar un comentario