.

banners

Tabs fácil de... La senda de los condenados. Víctor de Andrés.

    Víctor de Andrés regresa a las páginas de tablaturas fáciles con uno de esos temas que nos encanta al más puro estilo de la banda sonora de una peli de piratas. Se trata de "La senda de los condenados" uno de sus últimos trabajos para su canal de Youtube, al que os invitamos encarecidamente a que lo visitéis, del que hoy os queremos dejar unos momentos en tablatura. Un tema con el que sin duda hemos pasado un buen rato aprendiendo y tocando la guitarra y con el que esperamos que vosotros también lo hagáis.
  Un saludo.
  TabsFácil.




La senda de los condenados. Víctor de Andrés.

Guitarra 1.

1.------------------------------|
2.------------------------------|
3.------------------------------|
4.------------------------------|
5.-6-8-10-10-10-10-10-10--6-6-6-|
6.------------------------------|

1.------------------------------|
2.------------------------------|
3.------------------------------|
4.--------8-8-8-8-8-8-----------|
5.-6-6-6---------------8-8-8-8--|
6.------------------------------|

1.------------------------------|
2.------------------------------|
3.------------------------------|
4.------------------------------|
5.-6-8-10-10-10-10-10-10--6-6-6-|
6.------------------------------|

1.---------------------|
2.---------------------|
3.---------------------|
4.---------7---10--12--|
5.-6-6-6---5---8---10--|
6.---------------------|...


Guitarra 2.


1.------------------------------|
2.-----------------4-3-3--3-3-3-|
3.-0--0-0-0-0--0-0--------------|
4.------------------------------|
5.------------------------------|
6.------------------------------|

1.------------------------------|
2.-3h4h3--1---------------------|
3.----------3--2-3-0--0-0-0-0--0
4.------------------------------|
5.------------------------------|
6.------------------------------|

1.-----------------3-|
2.---4--3-4-6--4-6---|
3.-0-----------------|
4.-------------------|
5.-------------------|
6.-------------------|


1.------------------------------|
2.-----------------4-3-3--3-3-3-|
3.-0--0-0-0-0--0-0--------------|
4.------------------------------|
5.------------------------------|
6.------------------------------|

1.------------------------------|
2.-3h4h3--1---------------------|
3.----------3--2-3-0--0-0-0-0--0
4.------------------------------|
5.------------------------------|
6.------------------------------|

1.-----------------3-|
2.---4--3-4-6--4-6---|
3.-0-----------------|
4.-------------------|
5.-------------------|
6.-------------------|

1.------------------11--10-10-10
2.-/8--8-8-8-8--8-8-------------|
3.------------------------------|
4.------------------------------|
5.------------------------------|
6.------------------------------|

1.-10-10--11-10-8---------------|
2.----------------11--10-11--8--|
3.------------------------------|
4.------------------------------|
5.------------------------------|
6.------------------------------|

1.--------------11--10-11--/13--|
2.-8-8-8-8--8-8-----------------|
3.------------------------------|
4.------------------------------|
5.------------------------------|
6.------------------------------|


1.-11-13--13(15)-13(15)-|
2.----------------------|
3.----------------------|
4.----------------------|
5.----------------------|
6.----------------------|...


(0:40)

1.------------------------------|
2.------------------------------|
3.------------------------------|
4.------------------------------|
5.-------3-----5-3---3----------|
6.-3-5-6---6-5-----6---6-5--3-5-|

1.---------------------|
2.---------------------|
3.---------------------|
4.---------------------|
5.---3-----6-5-3-5-3---|
6.-6---6-5-----------6-|

1.------------------------------|
2.------------------------------|
3.------------------------------|
4.------------------------------|
5.-------3-----5-3---3----------|
6.-3-5-6---6-5-----6---6-5--3-5-|

1.---------------------|
2.---------------------|
3.---------------------|
4.---------------------|
5.---3-----6-5-3-5-3---|
6.-6---6-5-----------6-|

1.------------------------------|
2.------------------------------|
3.---------------------5-7-7-8-7
4.-/5--5-5--5-7-8-8--8----------|
5.------------------------------|
6.------------------------------|

1.------------------------------|
2.------------------------------|
3.-5-----------------------5----|
4.--8-7-5--5-5--5-7-8--8-8---8-7
5.------------------------------|
6.------------------------------|

1.-------------------------6-8-10
2.--------/8-8--8-10-11-11------|
3.------------------------------|
4.-5---5------------------------|
5.---8--------------------------|
6.------------------------------|

1.-10--11-10-8-----------8------|
2.-------------11-10-8-8---11-10
3.------------------------------|
4.------------------------------|
5.------------------------------|
6.------------------------------|

1.-----------------------10-15-10
2.-8----8-------------11--------|
3.---10------------12-----------|
4.--------------12--------------|
5.--------10-13-----------------|
6.----------------------------|...




No hay comentarios:

Publicar un comentario