.

banners

Tabs fácil de... All I got is you. Deep Purple.


  Deep Purple revelaba el título, la fecha de lanzamiento y algunas canciónes de su nuevo álbum “inFinite," continuación de su exitoso “Now What?!”

InFinite” será lanzado el 7 de abril del 2017 a través del sello discográfico alemán earMUSIC.   Aprovechando el anuncio de este lanzamiento, la banda ponía en circulación el primer lyric vídeo correspondiente al single “Time For Bedlam“, una canción clásica de Deep Purple y unos días después ya podemos disfrutar del video y el tema "All I got is you" del que queremos dejarte como siempre en tablaturas fáciles, unos momentos en tablatura.
  Un saludo.
  TabsFácil.




All I got is you. Deep Purple.


(0:16)

1.----------------------------|
2.-/12--10--8-7-8---12(13)(12)
3.----------------------------|
4.----------------------------|
5.----------------------------|
6.----------------------------|

1.------------------14(15)(14)-12
2.-10--/13--12---12-------------|
3.------------------------------|
4.------------------------------|
5.------------------------------|
6.------------------------------|

1.----11(12)(11)----------------|
2.-15------------8---12(13)(12)-|
3.------------------------------|
4.------------------------------|
5.------------------------------|
6.------------------------------|

1.-------------|
2.-10--/13--12-|
3.-------------|
4.-------------|
5.-------------|
6.-------------|...


(2:13)"...Something awfully wrong with..."

1.--------------------------------|
2.--------------------------------|
3.--------------------------------|
4.-4----------------2---4--4--7--2
5.-2---5---7----4---0---2--2--5--0
6.-----3---5----2-----------------|

1.------------------------------|
2.------------------------------|
3.------------------------------|
4.--------------2--4--4--7---2--|
5.-2--5--7---4--0--2--2--5---0--|
6.-0--3--5---2------------------|...



No hay comentarios:

Publicar un comentario