.

banners

Tablatura fácil de...T.V. Eye. Metallica & Iggy Pop.


  Metallica acaba de hacer público la lista de ciudades de su gira mundial y entre ellas está Madrid por dos veces y Barcelona, ( para 2018) así que, ya sabéis, a todo el que no se quiera perder a Metallica, después de tanto tiempo, a reservar entradas.
  Hoy en tablaturas fáciles queremos aprovechar la noticia para publicar unos momentos en tablatura de uno de los temas que tocaron en México, con invitado incluido, nada más y nada menos que Iggy Pop y su "T.V. Eye."
  Un saludo.
  TabsFácil.




T.V. Eye. Metallica & Iggy Pop.



                     


(0:55)

1.-----------------------------|
2.-----------------------------|
3.-------4---4-6(7)(6)-4---4---|
4.-6-6-6---6-------------6---6-|
5.-----------------------------|
6.-----------------------------|

1.-----------------------------|
2.-----------------------------|
3.-------4---4-6(7)(6)-4---4---|
4.-6-6-6---6-------------6---6-|
5.-----------------------------|
6.--------------------------!...


(1:26)

1.-----------------------------|
2.-----------------------------|
3.-----------------------------|
4.--------4-------4-------4----|
5.-5-5-5--2--5-5--2--5-5--2--5-5
6.-3-3-3-----3-3-----3-3-----3-3

1.-----------------------------|
2.-----------------------------|
3.-----------------------------|
4.--------4-------4-------4----|
5.-5-5-5--2--5-5--2--5-5--2--5-5
6.-3-3-3-----3-3-----3-3-----3-3

1.-----------------------------|
2.-----------------------------|
3.-----------------------------|
4.--------4-------4-------4----|
5.-5-5-5--2--5-5--2--5-5--2--5-5
6.-3-3-3-----3-3-----3-3-----3-3

1.-----------------------------|
2.-----------------------------|
3.-----------------------------|
4.--------4-------4-------4----|
5.-5-5-5--2--5-5--2--5-5--2--5-5
6.-3-3-3-----3-3-----3-3-----3-3...


(2:36)

1.-----------------------------|
2.-7-7-7---7-9-9(10)(9)-7---7/9
3.-------8----------------8----|
4.-----------------------------|
5.-----------------------------|
6.-----------------------------|

1.-----------------------------|
2.-9---------------------------|
3.---6-6-4------4-6(7)-4----4--|
4.---------6--6---------6-6--6-6
5.-----------------------------|
6.-----------------------------|...





No hay comentarios:

Publicar un comentario