.

banners

Tablatura fácil de...Symphony No.5 Movement 1 (L.V. Beethoven). Robert Rodrigo.


   Uno de los guitarristas que conocemos desde hace ya muchos años pero que no hemos tenido la oportunidad de compartir con vosotros en nuestras páginas, se trata nada mas y nada menos de el guitarrista vizcaíno Robert Rodrigo que hace unos días anunciaba su participación en el recopilatorio de la compañía Lion Music: “Johan Sebastian Bach – Interpretations”. Se trata de un disco de 11 cortes homenaje al genio de la música clásica, reinterpretado por artistas de la talla de Patrik Carlsson, Charly Sahona, Mika Grönholm y el propio Robert R. Rodrigo. Además Mozart y Vivaldi serán los próximos en pasar por los dedos virtuosos de uno de los mejores guitarristas de nuestro país.
  Así que aprovechamos y os dejamos unos momentos en tablatura del primer movimiento de la quinta sinfonía de Beethoven interpretada por Robert Rodrigo.
  Un saludo.
  TabsFácil.





Tablatura fácil de...Symphony No.5 Movement 1 (L.V. Beethoven). Robert Rodrigo.

1.---------------------------|
2.-------------------8-8-8---|
3.-------------------------8-|
4.-5-5-5----3-3-3------------|
5.-------6--------5----------|
6.---------------------------|

1.---------11-11-11-8--------|
2.-9-9-9-8-------------------|
3.---------------------10-10-|
4.---------------------------|
5.---------------------------|
6.---------------------------|

1.-----------------13-13-13-10
2.--------9-9-9-8------------|
3.-10------------------------|
4.----12---------------------|
5.---------------------------|
6.---------------------------|

1.-/15-15-13-----/15-15-13---|
2.-----------16------------16
3.---------------------------|
4.---------------------------|
5.---------------------------|
6.---------------------------|

1.-/15-15-13-------15--------|
2.-----------16-13-----------|
3.---------------------------|
4.--------------------6-6-6-3
5.---------------------------|
6.---------------------------|

1.-16-16-16-13---------------|
2.-------------15-15-15-12---|
3.-------------------------13
4.---------------------------|
5.---------------------------|
6.---------------------------|

1.-----------16-16-16-13-----|
2.-----------------------15-15
3.-13-13-12------------------|
4.---------------------------|
5.---------------------------|
6.---------------------------|

1.-------------------|
2.-15-12-------------|
3.-------13-13-13-12-|
4.-------------------|
5.-------------------|
6.-------------------|...





No hay comentarios:

Publicar un comentario