.

banners

Tablatura fácil de...Sleepwalking. Avantasia

   
  "Sleepwalking" llevaba por nombre uno de los temas y el que eligieron como adelanto del disco lanzado en 2013 por Tobias Sammet y su Avantasia, "The mystery of time" del que hoy queremos rescatar un momento en tablatura perteneciente al solo del tema, el cual esperamos como siempre que os guste y disfrutéis.
  Un saludo.
  TabsFácil.






Sleepwalking. Avantasia.





  (2:15)

1.------------------------------11-----------------
2.-----------------------8-9-11----14-14-13-13-----
3.----------------8-8--8----------------------13-13
4.-8---10--6----------------------------------------
5.-6---8---4--6-------------------------------------
6.------------4-------------------------------------


1.------------------------------------------------11-
2.----------------------------------------8-9-11-----
3.-17-17--------------------------------8------------
4.-------20-20-18-18--16/17/18-17--------------------
5.--------------------------------18-----------------
6.---------------------------------------------------


1.-------------------------------------------------------
2.-14-14-13-13-------------------------------------------
3.-------------13-13--17-17---------------10-8-9(11)-8---
4.---------------------------20-20-18-18---------------11
5.-------------------------------------------------------
6.-------------------------------------------------------


1.----------------------------------------------------
2.------------------------------16-----------------16-
3.---5(6)-5-3---3--------15(17)----15(17)---15(17)----
4.-11---------6---6-3---------------------------------
5.--------------------6-------------------------------
6.----------------------------------------------------


1.------------------------20(21)(20)-20h18-----15(16)-15
2.-----------------------------------------21-----------
3.-15(17)-15-13-------13--------------------------------
4.--------------15-13-----------------------------------
5.------------------------------------------------------
6.------------------------------------------------------


1.----------16--------16--------------------------------
2.-18-16-18----16(18)----18-16--------------------------
3.-----------------------------18-17------------------15
4.-----------------------------------20--18-17--17-18---
5.------------------------------------------------------
6.------------------------------------------------------


1.------------------------------------------
2.------------------------------------------
3.---------15--------15---12-13-10-12-------
4.---17-18-----17-18------------------13----
5.------------------------------------------
6.------------------------------------------

No hay comentarios:

Publicar un comentario en la entrada