.

banners

Tablatura fácil de...Edema Ruh. Nightwish.




   "Endless forms most beautiful" así se llamaba el último trabajo de Nightwish, con cambios en la formación relevantes sobre todo a nivel vocal, que no dejaron indiferentes a los seguidores de la banda.
  Hoy en tablaturas fáciles, vuelve la banda finlandesa con unos momentos en tablatura del tema "Edema Ruh" que espero que os guste y lo disfrutéis.
   Un saludo.
   TabsFácil.





Edema Ruh. Nightwish.

1.----------------------------------

2.----------------------------------
3.----------------------------------
4.----------------------------------
5.---5-7-5---------------------3-3--
6.---3-5-3--5-3-5--5-3-5--0-1--1-1--

1.----------------------------------

2.----------------------------------
3.----------------------------------
4.----------------------------------
5.-----5-5--3--5--5-5--5-5--5--2-3--
6.---1-3-3--1--3--3-3--3-3--3-------

1.----------------------------------

2.----------------------------------
3.----------------------------------
4.----------------------------------
5.---------------------------3-3----
6.---3-0--5-3-5--5-3-5--0-1--1-1--1-

1.--------------------------------

2.--------------------------------
3.--------------------------------
4.---5-5--5--5-5---------------2--
5.---3-3--3--3-3--2-2--2--2-2--0--
6.----------------0-0--0--0-0-----...

  (1:27)

1.----------------------------------
2.----------------------------------
3.-----0-0-5-0-4--------------------
4.---7-----------5-3-7--------------
5.---------------------3-5-7-5--3h5-
6.----------------------------------

1.----------------------------------

2.----------------------------------
3.----------------2-/4h5-------0-0-5
4.-----------------------5---7------
5.---3h5--5--3h5-----------7--------
6.----------------------------------

1.----------------------------------

2.----------------------------------
3.---0-4----------------------------
4.-------5-3-7-------5---2-/5--5----
5.-------------3-5-7---3---------3--
6.----------------------------------

1.------------

2.------------
3.------------
4.---2-/5---7-
5.------------
6.------------...

  (2:51)

1.------------------------------------
2.------------/8-10-5-----------------
3.-----5-7-/9----------5-7h5----5-7h5-
4.---7-----------------------7--------
5.------------------------------------
6.------------------------------------

1.------------------------------------

2.------------------------------------
3.--------------------------------5---
4.---7h5----------5h7--7-7--7-7-7---7-
5.-------7h5--------------------------
6.-----------8h5----------------------

1.------------------------------------

2.------------------------------------
3.----------------------------5-------
4.---7-7-7-7--5h7--7-7--7-7-7---7-7-7-
5.------------------------------------
6.------------------------------------

1.------------------------------------

2.------------------------------------
3.------------------------5-----------
4.---7-7--5h7--7-7-7-7-7----7-7-7-7-7-
5.------------------------------------
6.------------------------------------

1.------------------------------------

2.-------------------------------5----
3.---/9-7-5-7h5---5h7--7-7-7-7-7---7-7
4.--------------7---------------------
5.------------------------------------
6.------------------------------------

1.------------------------------------

2.------------------------------------
3.-------------------------5----------
4.---7-7-7--5h7--7-7-7-7-7---7-7-7-7-7
5.------------------------------------
6.------------------------------------

1.---8h8-----------------------

2.--10h8-----------------------
3.-------9-7-5h7h5-------------
4.-----------------7-5-7-------
5.-----------------------7-5-3-
6.-----------------------------...






No hay comentarios:

Publicar un comentario