.

banners

Tablatura fácil de... Ready to strike. King Kobra.





   En 1985 salía a la luz el primer disco de la banda King Kobra, formada por el conocido batería Carmine Appice, Mark Free voz, David Michael-Philips guitarra, Mick Sweda guitarra y Johnny Rod al bajo.
   Hoy en tablatura fáciles queremos recordarla con unos momentos en tablatura del tema que daba inicio al disco, "Ready to Strike."
  Un saludo.
  TabsFácil.




 Ready to strike. King Kobra.




(0:09) Guit. 1.

1.---------------------------------------------------
2.----------3----------------3---------------3-------
3.------3-2---2-3--------3-2---2-3-------3-2---2-3---
4.----5-----------5----5-----------5---1-----------5-
5.---------------------------------------------------
6.-3-----------------3---------------3---------------
1.----------------------------------------------------
2.-------3-------------------3------------------3-----
3.---3-2---2-3-------------5---5-----------0------3---
4.-3-----------5---------5-------5-------0---5------5-
5.----------------6-5-3------------3-1-0-------------5
6.----------------------------------------------------


1.-------------------------
2.-------------------------
3.-----------7---------5---
4.-------5-7---7-5---------
5.-----5-----------5-------
6.---5---------------------



(0:23) Guit 2.

1.-------------------------------------------
2.-------------------------------------------
3.------------------------------------3-/7---
4.---/5---/7---/8---7-8-/10---10-8-/7--------
5.-------------------------------------------
6.-------------------------------------------


(0:38) y (1:05)

1.-/15------------------------------------------------
2.-----15/16/15/13--------15/16/15/13----16-15--13h15-
3.------------------14-15-------------14--------------
4.----------------------------------------------------
5.----------------------------------------------------
6.----------------------------------------------------


1.--------------
2.---13----15---
3.------14------
4.--------------
5.--------------
6.--------------



(0:58)

1.---------------------------------
2.---------------------------------
3.---------------------------------
4.---5-7-8-10---10-8-7---5h7h5-4---
5.---------------------------------
6.---------------------------------



(1:23)

1.-------------------------------------
2.-------------------------------------
3.---3-3---------------------5-3-2-3---
4.---5-5---5-5---5-5---5-5-5-----------
5.-------------------------------------
6.-------------------------------------


1.-----------------------------------------------------
2.-----------------------------------------------------
3.-3-3---------------------5-3-2-3---3-3-------2-----0-
4.-5-5---5-5---5-5---5-5-5-----------5-5---5-5---5-5---
5.-----------------------------------------------------
6.-----------------------------------------------------


1.-----------------------------------------------------
2.-----------------------------------------------------
3.-----2---3-3---------------------5-3-2-3---3-3-------
4.-5-5-----5-5---5-5---5-5---5-5-5-----------5-5---5-5-
5.-----------------------------------------------------
6.-----------------------------------------------------


1.-----------------------------------------------------
2.-----------------------------------------------------
3.-------------------5-3-2-3---3-3---------------------
4.-5-5---5-5---5-5-5-----------5-5---5-5---5-5---5-5-5-
5.-----------------------------------------------------
6.-----------------------------------------------------


1.-----------------------------------------------------
2.-----------------------------------------------------
3.---5-3-2-3-------------------------------------------
4.-----------------------------------------------------
5.-------------------/5----6-5-3-----------1-0---------
6.-------------3-5-6----5--------6-5-3---1-----1-1-3---


(1:44)

1.---------------------------------------------------
2.---------------------------------------------------
3.---------------------------------------------------
4.---------------------------------------------------
5.-5-5---5-5---5-5---5-5---5-----------------5---5-5-
6.-3-3---3-3---3-3---3-3---3---6-5-3-6-5-1---3---3-3-


1.------------------------------------------------
2.------------------------------------------------
3.------------------------------------------------
4.-----------------------------8---8-8---8-8---8-8
5.-5-5---5-5---5---------------6---6-6---6-6---6-6
6.-3-3---3-3---3--6-5-3-5-3-1---------------------


1.-----------------------------------------------------
2.-----------------------------------------------------
3.-----------------------------------------------------
4.-8-8---8-8---5---5-5---5-5---5-5---5-5---5-5---------
5.-6-6---6-6---3---3-3---3-3---3-3---3-3---3-3---------
6.----------------------------------------------6-5-3-1


1.---------------------------------------------------
2.---------------------------------------------------
3.---------------------------------------------------
4.------------------------------------------5--------
5.-5---5-5---5-5---5-5---5-5----------------3------5-
6.-3---3-3---3-3---3-3---3-3---6-5-3-6-5-3-----6-5-3-


1.----------------------------------------------------
2.----------------------------------------------------
3.----------------------------------------------------
4.------------------------------8-8-8-8-8-8-----------
5.-5-5---5-5---5----------------6-6-6-6-6-6-5h6h5-6-8-
6.-3-3---3-3---3---6-5-3-5-3-1------------------------


1.-----------------------
2.-----------------------
3.-----------------------
4.---8-------------------
5.-----8-6---3-3-3-3-3-3-

6.-----------1-1-1-1-1-1-. . .

No hay comentarios:

Publicar un comentario