.

banners

Tablatura fácil de... Nada nos podrá parar. Débler.



  Todo está preparado, portada del disco, track list del álbum, dos temas adelanto... A la esperada vuelta de Débler apenas le queda unos días para que vea la luz, y después de escuchar los dos primeros temas que han adelantado y a sabiendas que en la producción se encuentra nada más y nada menos que Txus di Fellatio con su nuevo sello discográfico, Songs Of Evil, la verdad es que tenemos muchas ganas de escuchar el producto final.
  Mientras esperamos en tablaturas fáciles os queremos dejar unos momentos en tablatura de su último adelanto, "Nada nos podrá parar" para que disfrutéis y paséis un buen rato con la guitarra.
  Además os dejamos un enlace para conseguir el disco en Pre-Order, si queréis ser los primeros en conseguir el disco que saldrá, el 31 de Marzo.
  Un saludo.
  TabsFácil.




Nada nos podrá parar. Débler.


      (0:27)
 
1.-------------------------------|
2.-------------------------------|
3.----9--11-12-11-9----9-------9-|
4.-/9---------------12---9--/9---|
5.-------------------------------|
6.-------------------------------|

1.---------------------------------|
2.---------------------------------|
3.-11-11(12)(11)-9-12(14)(12)-11---|
4.-------------------------------12
5.---------------------------------|
6.---------------------------------|

1.-------------------------------|
2.-------------------------------|
3.----9--11-12-11-9----9-------9-|
4.-/9---------------12---9--/9---|
5.-------------------------------|
6.-------------------------------|

1.----------------------10-12----|
2.------------------12-----------|
3.-11--11/12--12/14--------------|
4.-------------------------------|
5.-------------------------------|
6.-------------------------------|...


(3:19)

1.-------------------------------|
2.-----/8---/7---3-/5------------|
3.-/9-----------------4-----9---11
4.-----------------------/9---9--|
5.-------------------------------|
6.-------------------------------|

1.-------------------------------|
2.---/10-8-------------8---------|
3.---------/11--/9--11---11h12h11
4.-9-----------------------------|
5.-------------------------------|
6.-------------------------------|...


No hay comentarios:

Publicar un comentario