.

banners

Tablatura fácil de... Langosta Iraquí. Family Guy.



 

   Una de las canciones que popularizaron y más fama ha tenido de la prestigiosa y conocida serie de dibujos animados norteamerica "Family Guy" es sin duda, "La langosta Iraquí." 
  Desde luego que  después han venido numerosas canciones igual de divertidas pero quizás haya sido ésta la que más nos despertó a todos en su momento y aún hoy lo hace, las ganas de aprender a tocarla.
  Hoy en tablaturas fáciles, cómo seguidores de la serie de dibujos animados que somos, os queremos dejar unos momentos en tablatura de dicha canción, para que paséis un buen rato tocando la guitarra.
  Un saludo.
  TabsFácil.



Langosta Iraquí. Family Guy.


1.----------------------3--3-|
2.----4-----4-----------3--3-|
3.----5-----5-----------4--4-|
4.----5-----5--6-3-6-5-------|
5.-3-----6-------------------|
6.---------------------------|

1.----------------------3--3-|
2.----4-----4-----------3--3-|
3.----5-----5-----------4--4-|
4.----5-----5--6-3-6-5-------|
5.-3-----6-------------------|
6.---------------------------|

1.----------------------3--3-|
2.----4-----4-----------3--3-|
3.----5-----5-----------4--4-|
4.----5-----5--6-3-6-5-------|
5.-3-----6-------------------|
6.---------------------------|

1.---------------------------|
2.---------------------------|
3.-12--11--12-12-12--11--8-8-8
4.---------------------------|
5.-10---9--10-10-10---9--6-6-6
6.---------------------------|

1.--------------|
2.--------------|
3.-11-11-11--12-|
4.--------------|
5.-9--9--9---10-|
6.--------------|

1.---------------------------|
2.---------------------------|
3.-12--11--12-12-12--11--8-8-8
4.---------------------------|
5.-10---9--10-10-10---9--6-6-6
6.---------------------------|

1.--------------|
2.--------------|
3.-11-11-11--12-|
4.--------------|
5.-9--9--9---10-|
6.--------------|






No hay comentarios:

Publicar un comentario