.

banners

Tablatura fácil de... Black rain. Creeper.

creeper_tablaturas_faciles_tabs


   Creeper lanzará su álbum de debut "Eternity, in your arms" el 24 de Marzo. Mientras esperamos ya nos han adelantado varios temas de los que queremos destacar en tablaturas fáciles, "Black rain" del que os queremos dejar unos momentos en tablatura del inicio del tema.
  Un saludo.
  TabsFácil.





Black rain. Creeper.


Guitarra 1. (0:38)

1.------------------------------|
2.------------------------------|
3.------------------------------|
4.-4----------------------------|
5.-2-----6--8--6-6-6-6--6-6-6-6-|
6.----3--4--6--4-4-4-4--4-4-4-4-|

1.------------------------------|
2.------------------------------|
3.------------------------------|
4.-4-4-4-4----------------------|
5.-2-2-2-2--4-4-4-4--6-6-6-6--6-|
6.----------2-2-2-2--4-4-4-4--4-|

1.--------------------------|
2.--------------------------|
3.--------------------------|
4.--------9-9-9-9--8-8-8-8--|
5.-6-6-6--7-7-7-7--6-6-6-6--|
6.-4-4-4--------------------|...


Guitarra 2. (0:41)

1.------------------------------|
2.-x-x-x-x-x----------x-x-x-x-x-|
3.-x-x-x-x-x--3-/4-4--x-x-x-x-x-|
4.-x-x-x-x-x--3-/4-4--x-x-x-x-x-|
5.------------------------------|
6.------------------------------|

1.------------------------------|
2.----------------------------8/9
3.-3-/4--4-/6--/4--3--4-/6--8---|
4.-3-/4--4-/6--/4--3--4-/6--8---|
5.------------------------------|
6.------------------------------|

1.------------------------------|
2.-8--9/11--9-8--9/11/9--9--/16-|
3.------------------------------|
4.------------------------------|
5.------------------------------|
6.------------------------------|

1.-18----18----18---------------|
2.----16----16----16--14--14(16)
3.------------------------------|
4.------------------------------|
5.------------------------------|
6.------------------------------|

1.-----------------|
2.-12--11h12h11----|
3.--------------13-|
4.-----------------|
5.-----------------|
6.-----------------|...






No hay comentarios:

Publicar un comentario en la entrada