.

banners

Tabs fácil de... Come dream with me. Allen/Lande.


 Dos pesos pesados dentro del metal, que parece que hacen canciones y discos con una facilidad increíble, haciéndolos además muy buenos.
  Me he quedado con un tema de este disco,  "The great divide" en principio, por que está producido por otro grande como es Timo Tolkki. Así que ahí os dejo el momento de inicio del tema en tablatura que espero que os guste y, como siempre lo disfrutéis.
  Un saludo.
  TabsFácil.




                    

Come dream with me. Allen/Lande.


Guitarra 1.
1.----------------------------------------
2.----------------------------------------
3.----------------------------------------
4.-----------------------5--5-5--5-5--5-5-
5.---2--2-2--2-2--2-2----3--3-3--3-3--3-3-
6.---0--0-0--0-0--0-0---------------------


Guitarra 2.
1.------------------------------10-8-7---
2.-----7-8---10-8-7-8-----------------10-
3.---9-----9--------------7-9------------
4.---------------------10----10----------
5.---------------------------------------
6.---------------------------------------

Guitarra 1.
1.-----------------------------------------
2.-----------------------------------------
3.-----------------------------------------
4.------------------------7--7-7--7-7--7-7-
5.--5--5-5--5-5--5-5------5--5-5--5-5--5-5-
6.--3--3-3--3-3--3-3-----------------------

Guitarra 2.
1.------------10------------------------------
2.---10-12------13-12-10-----8-10---12-10-8-10
3.-12------12-------------11------11----------
4.--------------------------------------------
5.--------------------------------------------
6.--------------------------------------------

Guitarra 1.
1.----------------------------------------
2.----------------------------------------
3.----------------------------------------
4.-----------------------5--5-5--5-5--5-5-
5.---2--2-2--2-2--2-2----3--3-3--3-3--3-3-
6.---0--0-0--0-0--0-0---------------------


Guitarra 2.
1.------------------------------10-8-7---
2.-----7-8---10-8-7-8-----------------10-
3.---9-----9--------------7-9------------
4.---------------------10----10----------
5.---------------------------------------
6.---------------------------------------

Guitarra 1.
1.-----------------------------------------
2.-----------------------------------------
3.-----------------------------------------
4.------------------------7--7-7--7-7--7-7-
5.--5--5-5--5-5--5-5------5--5-5--5-5--5-5-
6.--3--3-3--3-3--3-3-----------------------

Guitarra 2.
1.------------10------------------------------
2.---10-12------13-12-10-----8-10---12-10-8-10
3.-12------12-------------11------11----------
4.--------------------------------------------
5.--------------------------------------------
6.--------------------------------------------

Guitarra 1.
1.-------------------------------------
2.-------------------------------------
3.-------------------------------------
4.---5--5-5--5-5--5-5--5-5--5-5--5-5---
5.---3--3-3--3-3--3-3--3-3--3-3--3-3---
6.-----------------------------------...

Guitarra 2.
1.-----------------------------8-10----8-10-
2.-----7-8---7-8-10----8-10-12------12------
3.---9-----9--------11----------------------
4.------------------------------------------
5.------------------------------------------

6.----------------------------------------...




No hay comentarios:

Publicar un comentario