Ir al contenido principal

Acordes y tablatura fácil de ... Aire. David Otero.



    David Otero, ese es su nuevo nombre comercial, dejando atrás "El pescao" y utilizando su auténtico nombre. Después de una fenomenal aceptación de  "Una vez más" su primer single, el segundo "Aire" se coloca en las primeras posiciones de las listas de éxitos.
   Aprende a tocar con tablaturas fáciles los acordes de "Aire" y disfruta de David Otero.
  Un saludo.
  TabsFácil.





Aire. David Otero.


1.------------------------------|
2.-3--------3--------3--------3-|
3.-2------2--------2--------2---|
4.-0----4--------4--------2-----|
5.----5--------5--------4-------|
6.------------------------------|


1.----------------------------------|
2.-------3--------3--------3--------3
3.-----2--------2--------2--------2-|
4.---4--------4--------2--------4---|
5.-2--------2--------4--------5-----|
6.----------------------------------|




Re                                   La
Agua, yo sé que tú eres el agua

                           Sim
cayendo como nostalgia

Solm                                 Re
cristalina y transparente tu eres agua

                             La
A veces mares en calma

                        Sim
y otras inundas mi alma

Solm                             La
necesito una razón para ser

                      Sim    Sol                La
el viento que te empuja y levanta tus olas

                                 Sol               La
el que te hace subir hasta las nubes sola.

Re                  La            Sim
Antes de que vuelvas a llover

Sol                      Re
déjame que te levante

                       La
antes de que cambies

Sim                           La                 Sol
déjame que nos mezclemos en un baile

Mim                          La                        Re
porque tu eres cómo el mar, yo como el aire.

Re                                 La
Aire, tú sabes que sou el aire

            Sim                 
pero te miro y no hay nadie

     Solm                                        Re
¿Por qué no jugamos a inundar los valles?

                              La                Sim
y provocar huracanes para que nadie nos calle

           Sol                        La
y de noche iluminar tus mares

                               Sim                         Sol 
que se detenga el mundo si te encuentro sola

La                              Sol
busquemos la manera de parar las horas

Re                           La         Sim
antes de que vuelva a llover...

Comentarios

LO MÁS BUSCADO EN TABSFACIL.ES:

Aprende a tocar...Constelación Alpha D.C.I. Mägo de Oz.

Todas las críticas que he leído del disco coincidían en que "Constelación D.C.I." era  la canción más "rara" que había en el nuevo trabajo de la banda, din dejar de ser un buen tema.
  En OZTABLATURAS puedes aprender a tocarla desde ya.
  Un saludo.
  OzTablaturas.

Constelación Alpha D.C.I.







Tablatura fácil de... Caín. Tierra Santa.

"Quinto Elemento" así se llama el nuevo trabajo de Tierra Santa. Un álbum, el undécimo en su carrera, compuesto por diez canciones que certifican el magnífico estado de forma de esta gran banda riojana. 
  Nos presentaban su disco con un single y video, "Caín" del que hoy en Tablaturas fáciles os queremos dejar unos momentos en tablatura para que, como siempre disfrutéis y practiques con la guitarra.
  Un saludo.
  TabsFácil.



Caín. Tierra Santa.


1.----------------------------|
2.----------------------------|
3.----------------------------|
4.-------------------------5--|
5.-2-----------------------3--|
6.-0--0-0-0--0-0-0--0-0-0-----|

1.-----------------------------|
2.-----------------------------|
3.-----------------------------|
4.----------------------7------|
5.----------------------5------|
6.-0-0-0--0-0-0--0-0-0-----0-0-0

1.----------------------|
2.----------------------|
3.----------------------|
4.----------5--4--2-----|
5.----------3--2--0--5--|
6.-0-0-0-0-----------3--|

1.---…

Tabs fácil de ... The eagle flies alone. Arch Enemy.

Tres años después Arch Enemy vuelve a sacar disco "Will to power". Un disco para consagrar dentro de la banda a su nueva vocalista, Alissa Whiteglutz y en el que empiezan aparecer las aportaciones del casi recién incorporado Jeff Loomis.
  Un disco cargado, como nos tiene acostumbrados la banda sueca, de riffs cañeros y grandes melodías y, es una de esas de las que os queremos dejar hoy en Tablaturas fáciles un momento en tablatura.
Nada mas y nada menos que del tema "The eagle flies alone" para que la disfrutéis y practiquéis con la guitarra.
  Un saludo.
  TabsFácil.





The eagle flies alone. Arch Enemy.


(0:45)

1.------------------------------|
2.------------------------------|
3.-------5/6\5-3-5-3h5h3/1---3--|
4.-3-5-6-------------------1---1
5.------------------------------|
6.------------------------------|

1.---------------------------|
2.---------------------------|
3.-3---3---3---3---3---3---3-|
4.---1---1---1---1---1---1---|
5.---------------------------|
6.----------------…

Acordes de... La lluvia en los zapatos. Leiva.

Leiva vuelve a estar de actualidad al volver a situar su último trabajo "Monstruos" como número uno en ventas en España, ésta vez aprovechando el single "La lluvia en los zapatos." El artista se encuentra en un buen momento, habiendo recibido el premio como artista del año y habiendo trabajado en el inminente disco de Joaquin Sabina.   En tablaturas fáciles os queremos dejar los acordes de su último sencillo para que disfrutéis y practiques con Leiva.   Un saludo.   TabsFácil.




La lluvia en los zapatos. Leiva.

Sim                             Sol Yo me aburría de la chica que tenía entonces
Re                                 Fa# tú te vengabas de tu novio de siempre
Sim       Sol     Fa#   La todo te hacía reír.

Sim                             Sol Yo te alumbraba con la luz que desprendía

entonces
Re                                 Fa# y me mataba que no fueras más fuerte
Re         Fa#m       Sim   Sol todos lo vieron venir.
Mim Había magia
 Sol pero a veces se partía
 Re                …

Tablatura fácil de... Huelo el miedo. Warcry.

www.tabsfacil.es
   Tablaturas fáciles para guitarra










Huelo el miedo. Warcry.
(1:24) 1.--------------------------------------------- 2.--------------------------------------------- 3.--------------------------------------------- 4.---5---3---2--------------------------------- 5.---3---1---0---5-----5-----5-----5---3---5-5- 6.---------------3-3-3-3-3-3-3-3-3-3---1---3-3-. . .

(2:45) 1.----------15-17-17(18)(17)-15-14---14h15h14--- 2.---/15-15------------------------------------- 3.---------------------------------------------- 4.---------------------------------------------- 5.---------------------------------------------- 6.----------------------------------------------
1.-----------------------14----15----17---22(23)(22) 2.---15h16h15h13h15---15----15----15---------------- 3.-------------------------------------------------- 4.-------------------------------------------------- 5.-------------------------------------------------- 6.--------------------------------------------------


1.-20…

Acordes y Tabs fácil de... Alone. Alan Walker. Chords and Tabs.

A primeros de Diciembre nos presentaba "Alone" el DJ y productor noruego Alan Walker, consiguiendo en YouTube millones de visitas en apenas horas...
  En Tabs Fáciles nos gusta versiones y sacar covers de estos temas discotequeros y es por eso, que hoy os dejamos los acordes y la tablatura fácil del tema para que vosotros mismos practiquéis, disfrutéis y hagáis vuestra propia versión.
  Un saludo.
  TabsFácil.




Alone. Alan Walker.


Solm    Re#    La#
Lost in your mind

Rem
I wanna know

Solm            Re#    La#
Am I loosing my mind?

Rem
Never let me go

Solm 
If this night is not forever

 Re#
At least we are together

La#
I know I'm not alone

Rem
I know I'm not alone

Solm
Anywhere, whenever

Re#
Apart but still together

La#
I know I'm not alone

Fa                        Solm   Re#  La#
I know I'm not alone

1.---------------------------------|
2.---------------------------------|
3.--------5h7h5h7----------7-8-7-5-|
4.-5--------------8--5-------------8
5.---5-8---------------5-8---------|
6.-------…

Acordes y Tablatura fácil de...Un suspiro acompasado. Robe.

www.tabsfacil.es
   Tablaturas fáciles para guitarra
















Un suspiro acompasado. Robe.
1.------------------------------ 2.---7-7-7-5-5-5---------------- 3.---------------7-7-7-6-6-6-7-- 4.------------------------------ 5.------------------------------ 6.------------------------------
1.------------------------------ 2.---7-7-7-5-5-5---------------- 3.---------------7-7-7-6-6-6-7-- 4.------------------------------ 5.------------------------------ 6.------------------------------
1.--/10-10-10-10-9-9-9-7-7-7---- 2.---------------------------10- 3.------------------------------ 4.------------------------------ 5.------------------------------ 6.------------------------------
1.-------------/10-10-10-9-9-9-- 2.--10-10-/12------------------- 3.------------------------------ 4.------------------------------ 5.------------------------------ 6.------------------------------
1.--7-7-7------------------- 2.--------10-10-10-10-10/12- 3.-------------------------- 4.-------------------------- 5.--------…

Tablatura fácil de...The old man. Kadavar.

"The old man" fue el tema elegido por la banda Kadavar para presentar su último álbum que llevaba por nombre "Berlín."
   También lo he elegido para dejaros unos momentos en tablatura del tema que, espero, como siempre, que os guste y disfrutéis.
  Un slaudo.
  TabsFácil.










The old  man. Kadavar.

1.-------5-----------------------5-2.---7h8----7h8h7-5h7h5-5-5--7h8---3.---------------------------------4.---------------------------------5.---------------------------------6.---------------------------------
1.-----------------------------5---2.--7h8h7--5h7h5--3h5h3-3--7h8---7h3.---------------------------------4.---------------------------------5.---------------------------------6.---------------------------------

1.---5------------------------------2.--8--7h8h7--5h7h5--5-5------------3.----------------------------------4.------------------------9-7-5-4-/25.----------------------------------6.----------------------------------
1.-------5-----------------------5-2.---7h8----7h8h…