.

banners

Tabs fácil de...Love. Sonata Arctica.


   En 2014 la banda finlandesa Sonata Arctica lanzaba su octavo álbum de nombre "Pariash's Child"
del que extraerían como tercer single el tema "Love."

  Hoy en tablaturas fáciles os queremos dejar, cómo viene siendo habitual, unos momentos en tablatura del tema que esperamos que os guste y disfrutéis.
  Un saludo.
  TabsFácil.




Love. Sonata Arctica. 


(2:48)
1.----------------------------------------------
2.----------------------------------------------
3.----------------------------------------------
4.-----------------15/16-13--13-15-16--15-16(18)
5.-----------11-13------------------------------
6.-/11-13-14------------------------------------


1.----------------------------------------------
2.----------------------------------------------
3.-16-15-15(16)(15)-16--15----------------------
4.-------------------------16/18----------------
5.-------------------------------16-18--18h19h18
6.----------------------------------------------


1.---------------------------------------------
2.---------------------------------------------
3.--------------------------13-15-16-16-16(18)-
4.----16----------/16--------------------------
5.-16----19-18-16-----16-18--------------------
6.---------------------------------------------


1.-------
2.-------
3.-16(18)
4.-------
5.-------
6.-------


1.---------------------------------------------
2.---------------------------------16-17-19--21
3.-16---------------------15-16-18-------------
4.---------------14-16-18----------------------
5.-----/14-16-18-------------------------------
6.---------------------------------------------


1.-16-18-18(19)-18--16-18-22(23)-22(23)-22(23)-
2.---------------------------------------------
3.---------------------------------------------
4.---------------------------------------------
5.---------------------------------------------
6.---------------------------------------------


1.-22(23)(22)-19--18-19--19-18-22(23)-21-19-21-
2.---------------------------------------------
3.---------------------------------------------
4.---------------------------------------------
5.---------------------------------------------
6.---------------------------------------------


1.-22(23)--22(23)(22)(23)(22)(23)(22)-19--18-19-
2.----------------------------------------------
3.----------------------------------------------
4.----------------------------------------------
5.----------------------------------------------
6.----------------------------------------------




No hay comentarios:

Publicar un comentario