.

banners

Tabs fácil de... Wasted years. Iron Maiden.





    Coincidiendo con el anuncio de la gira norteamericana de Iron Maiden, lanzaban al gran público un reciente video de la formación en pleno directo tocando uno de sus grandes éxitos "Wasted years."
  Es verdad que existen millones de tabs de la canción, incluso oficiales, el caso que nos apetecía tener en nuestra pequeña colección unos momentos en tablatura de éste mítico tema de una de las bandas más grandes que ha dado el heavy metal, en concreto, ese riff de inicio tan popular y que nos ayudará no sólo a revivir aquellos maravillosos años a algunos, sino también para prácticar un ejercicio muy interesante en una sola cuerda, y también un pequeño fragmento de los primeros versos y del solo.
   Vuelve Iron Maiden a Tablaturas fáciles.
   Un saludo.
   TabsFácil.



Wasted years. Iron Maiden.


1.-12--0-0-0-0-7--0-0-0-0-8-|
2.--------------------------|
3.--------------------------|
4.--------------------------|
5.--------------------------|
6.--------------------------|

1.-0-0-0-0-5--0-0-0-0-7--0-0-3
2.---------------------------|
3.---------------------------|
4.---------------------------|
5.---------------------------|
6.---------------------------|

1.-0-0-5--0-0-0-0-2--0-0-0-0-3
2.---------------------------|
3.---------------------------|
4.---------------------------|
5.---------------------------|
6.---------------------------|

1.-0-0-0-0-5--0-0-0-0-2--0-0-3
2.---------------------------|
3.---------------------------|
4.---------------------------|
5.---------------------------|
6.---------------------------|

1.-0-0--12--0-0-0-0-7--0-0-0-0-8
2.-----------------------------|
3.-----------------------------|
4.-----------------------------|
5.-----------------------------|
6.-----------------------------|

1.-0-0-0-0-5--0-0-0-0-7--0-0-3
2.---------------------------|
3.---------------------------|
4.---------------------------|
5.---------------------------|
6.---------------------------|

1.-0-0-5--0-0-0-0-2--0-0-0-0-3
2.---------------------------|
3.---------------------------|
4.---------------------------|
5.---------------------------|
6.---------------------------|

1.-0-0-0-0-5--0-0-0-0-2--0-0-3
2.---------------------------|
3.---------------------------|
4.---------------------------|
5.---------------------------|
6.---------------------------|

1.-0-0--12--0-0-0-0-7--0-0-0-0-8
2.-----------------------------|
3.-----------------------------|
4.-----------------------------|
5.-----------------------------|
6.-----------------------------|

1.-0-0-0-0-5--0-0-0-0-7--0-0-3
2.---------------------------|
3.---------------------------|
4.---------------------------|
5.---------------------------|
6.---------------------------|

1.-0-0-5--0-0-0-0-2--0-0-0-0-3
2.---------------------------|
3.---------------------------|
4.---------------------------|
5.---------------------------|
6.---------------------------|

1.-0-0-0-0-5--0-0-0-0-2--0-0-3
2.---------------------------|
3.---------------------------|
4.---------------------------|
5.---------------------------|
6.---------------------------|

1.-0-0--12--0-0-0-0-7--0-0-0-0-8
2.-----------------------------|
3.-----------------------------|
4.-----------------------------|
5.-----------------------------|
6.-----------------------------|

1.-0-0-0-0-5--0-0-0-0-7--0-0-3
2.---------------------------|
3.---------------------------|
4.---------------------------|
5.---------------------------|
6.---------------------------|

1.-0-0-5--0-0-0-0-2--0-0-0-0-3
2.---------------------------|
3.---------------------------|
4.---------------------------|
5.---------------------------|
6.---------------------------|...


Verso riff  (0:31)*

1.-----------------------------|
2.-----------------------------|
3.-----------------------------|
4.-7/9---9-----9-----9-----9/12
5.-5/7---7-----7-----7-----7/10
6.-----0---0-0---0-0---0-0-----|

1.-----------------------------|
2.-----------------------------|
3.-----------------------------|
4.-12-12/7---7-----7-----7-----7
5.-10-10/5-5-5-5-5-5-5-5-5-5-5-5
6.-----------------------------|

1.-------------|
2.-------------|
3.-------------|
4.-7-7-7-7/9---|
5.-5-5-5-5/7---|
6.-----------0-|...

Solo (3:22)*

1.-0--------12--------------|
2.---15(17)----15-12--------|
3.-------------------14(16)-|
4.--------------------------|
5.--------------------------|
6.--------------------------|

1.------------------12------------|
2.-12h15h12--15(17)----15-12------|
3.---------------------------14(16)
4.--------------------------------|
5.--------------------------------|
6.--------------------------------|

1.--------------------------|
2.-12h15h12--15(17)(15)--12-|
3.--------------------------|
4.--------------------------|
5.--------------------------|
6.--------------------------|

1.-14(15)--14(15)--14(15)--14(15)
2.------------------------------|
3.------------------------------|
4.------------------------------|
5.------------------------------|
6.------------------------------|

1.-14(15)--14h12---|
2.---------------13
3.-----------------|
4.-----------------|
5.-----------------|
6.-----------------|...

* Tiempos del nuevo vídeo.




No hay comentarios:

Publicar un comentario en la entrada