.

banners

Tabs fácil de... Pandemonium. Nita Strauss.



   Nita Strauss es una joven guitarrista estadounidense mundialmente reconocida por su trabajo en bandas como The Iron Maidens o por formar parte de la actual banda de Alice Cooper. Por si fuera poco, la revista Guitar World, la sitúa en el Nº 1 de las 10 mejores guitarristas femeninas, un dato bastante significativo, si todavía no las oído tocar.
  No contenta con todo esto, Nita Strauss está elaborando un disco en solitario del que ya nos presenta un primer tema "Pandemonium" del que como no podía ser de otra manera, os queremos dejar unos momentos en tablatura para que disfrutéis y practiques con esta fabulosa guitarrista.
  Un saludo.
  TabsFácil.




Pandemonium. Nita Strauss.

(0:41)

1.-------------------------------|
2.-/8-9--8h9h8h9-----------------|
3.---------------9-8--8h9h8--6-8-|
4.-------------------------------|
5.-------------------------------|
6.-------------------------------|

1.------------------------|
2.------------------------|
3.------------------------|
4.-9-8--8(9)--8--6--7(8)--|
5.------------------------|
6.------------------------|...


(1:34)

1.-------------------------------|
2.------------------------------9|
3.-8--------8--------------------|
4.---9----9---9----9-11-9----9---|
5.-----11-------11--------11-----|
6.-------------------------------|

1.--------------------------------|
2.--------9--------7-------7------|
3.-9----9---9----9---8---8---8---8|
4.---11-------11-------9-------9--|
5.--------------------------------|
6.--------------------------------|

1.-----------------7-7-7-7-6-6-6-6
2.-9-9-9-9-8-8-8-8---------------|
3.-------------------------------|
4.-------------------------------|
5.-------------------------------|
6.-------------------------------|

1.-------------------------------|
2.------------------------------9|
3.-8--------8--------------------|
4.---9----9---9----9-11-9----9---|
5.-----11-------11--------11-----|
6.-------------------------------|

1.--------------------------------|
2.--------9--------7-------7------|
3.-9----9---9----9---8---8---8---8|
4.---11-------11-------9-------9--|
5.--------------------------------|
6.--------------------------------|

1.-----------------7-7-7-7-6-6-6-6
2.-9-9-9-9-8-8-8-8---------------|
3.-------------------------------|
4.-------------------------------|
5.-------------------------------|
6.-------------------------------|...




No hay comentarios:

Publicar un comentario en la entrada