.

banners

tabs fácil de... Nocturnal me. Ghost.


   Con el EP lanzado en el 2016 "Popestar" la banda de origen sueco Ghost, se encuentra sumergida en una gira mundial, tras la cuál comenzarán a grabar nuevamente un larga duración. 
  Lejos de la controversia que desatan su imagen y sus letras, y aunque se desconoce la identidad de los integrantes de la banda, que ha sufrido varios cambios de formación y que seguirá sufriéndolos, pues parece ser que forma parte de la idiosincrasia de la banda, hoy en tablaturas fáciles queremos dejarte, como siempre, un momento en tablatura de uno de los temas de su último trabajo, "Nocturnal me."
  Hoy vuelve a tablaturas fáciles Ghost.
  Un saludo.
  TabsFácil.





Nocturnal me. Ghost.


1.-----------------------------|
2.-----------------------------|
3.-----------------------------|
4.----2--------2-----2-------2-|
5.-2--0--0-0-0-0--2--0-0-0-0-0-|
6.-0--------------0------------|

1.-------------------------------|
2.-------------------------------|
3.-------------------------------|
4.----2-------2-----------------7
5.-2--0-0-0-0-0--/3-2--2--6--9--5
6.-0-------------------0--4--7---|

1.-----------------------------|
2.-----------------------------|
3.-----------------------------|
4.----2--------2-----2-------2-|
5.-2--0--0-0-0-0--2--0-0-0-0-0-|
6.-0--------------0------------|

1.-------------------------------|
2.-------------------------------|
3.-------------------------------|
4.----2-------2-----------------7
5.-2--0-0-0-0-0--/3-2--2--6--9--5
6.-0-------------------0--4--7---|

1.-----------------------------|
2.-----------------------------|
3.-----------------------------|
4.----2--------2-----2-------2-|
5.-2--0--0-0-0-0--2--0-0-0-0-0-|
6.-0--------------0------------|

1.-------------------------------|
2.-------------------------------|
3.-------------------------------|
4.----2-------2-----------------7
5.-2--0-0-0-0-0--/3-2--2--6--9--5
6.-0-------------------0--4--7---|

1.-----------------------------|
2.-----------------------------|
3.-----------------------------|
4.----2--------2-----2-------2-|
5.-2--0--0-0-0-0--2--0-0-0-0-0-|
6.-0--------------0------------|

1.-------------------------------|
2.-------------------------------|
3.-------------------------------|
4.----2-------2-----------------7
5.-2--0-0-0-0-0--/3-2--2--6--9--5
6.-0-------------------0--4--7---|...


(1:21)

1.--------------------------|
2.--------------------------|
3.--------------------------|
4.----2--------2----------2-|
5.-2--0--0-0-0-0--0-0-0-0-0-|
6.-0------------------------|

1.---------------------------------|
2.---------------------------------|
3.---------------------------------|
4.---------2-----2-------2---------2
5.-0-0-0-0-0--2--0-0-0-0-0-0-0-0-0-0
6.------------0--------------------|

1.---------------------------------|
2.---------------------------------|
3.---------------------------------|
4.---------2-----2-------2---------2
5.-0-0-0-0-0--2--0-0-0-0-0-0-0-0-0-0
6.------------0--------------------|

1.------------------------------|
2.------------------------------|
3.------------------------------|
4.---------2-----------------7--|
5.-0-0-0-0-0--/3-2--2--6--9--5--|
6.------------------0--4--7-----|...




No hay comentarios:

Publicar un comentario