.

banners

Tabs fácil de ...Induction. Gamma Ray.



   De la ruptura de Kai Hansen con Helloween, nacía Gamma Ray una de esas bandas que ha marcado sin duda el estilo de otras muchas bandas que han ido surgiendo a lo largo de los años y la historia reciente del heavy metal.
  Extraído de su séptimo álbum de estudio hemos querido rescatar a modo de covers "Induction" que no es precisamente el tema más representativo de la banda pero que nos gustó bastante en su día.
   Hoy en tablaturas fáciles, Gamma Ray, esperamos como siempre que os guste y disfrutéis.
  Un saludo.
  TabsFácil.




Induction(Covers). Gamma Ray.




(guitarra 1)

1.---------------------------------------------------
2.---------------------------------------------------
3.---------------------------------------------------
4.-------8-------8-------8---------8-----------------
5.-8---6---8---6---8---6---8-8---6---8-8-9---9-9---8-
6.-6-------6-------6-------6-6-------6-6-7---7-7---6-



1.---------------------------------------------------
2.---------------------------------------------------
3.---------------------------------------------------
4.-------8---------8-------8---------8---------------
5.-8---6---8-8---6---8---6---8-8---6---8-8-9---9-9-9-
6.-6-------6-6-------6-------6-6-------6-6-7---7-7-7-



1.-------------------------
2.-------------------------
3.-------------------------
4.-----------------------8-
5.---9-8---6---9---8-8---6-
6.---7-6---4---7---6-6-----






(guitarra 2)

1.----------------------------------------------
2.---/7-7-6-6-7---7-7-7-6-7/9-9-7---7-7-7-6-6-7-
3.----------------------------------------------
4.----------------------------------------------
5.----------------------------------------------
6.----------------------------------------------



1.----------------------------------------------
2.---/7-7-6-7/9-9-7---9-11-12-9-11-12---11------
3.-------------------------------------------11-
4.----------------------------------------------
5.----------------------------------------------
6.----------------------------------------------



1.----------------------------------------------
2.---/7-7-6-6-7---7-7-7-6-7/9-9-7---7-7-7-6-6-7-
3.----------------------------------------------
4.----------------------------------------------
5.----------------------------------------------
6.----------------------------------------------



1.-------------------------------------------------
2.-/7-7-6-7/9-9-7---9-11-12---12-11-12---12-11--11-
3.-------------------------------------------------
4.-------------------------------------------------
5.-------------------------------------------------
6.-------------------------------------------------





1.---7-7-6---7-6---------6-7---7-6------------
2.---------9-----7/9---9------------7\---7\---
3.--------------------------------------------
4.--------------------------------------------
5.--------------------------------------------
6.--------------------------------------------

No hay comentarios:

Publicar un comentario