.

banners

Tabs fácil de... Feed the machine. Nickelback.



   La banda canadiense Nickelback ya tiene en la calle el adelanto de su próximo disco. "Feed the machine" se llama el tema igual que el título del disco, que saldrá a comienzos de verano y con el que preparan una extensa gira.
   En tablaturas fáciles nos hemos hecho eco de la noticia y os hemos preparado, como siempre, unos momentos en tablatura del tema, que esperamos que os guste y disfrutéis.
  Un saludo.
  TabsFácil.





Feed the machine. Nickelback.


(0:04)

1.----------------------------|
2.-/4--3---/6--4-------3---/6-|
3.-----------------/8---------|
4.----------------------------|
5.----------------------------|
6.----------------------------|


(0:16)

1.-------------------------------|
2.-------------------------------|
3.-------------------------------|
4.-5-----------------------------5
5.-3--3-3-5h3--3-3-6h3------3h5--3
6.----------------------6-6------|

1.-----------------------|
2.-----------------------|
3.---------------3-------|
4.---------------1-------|
5.-3-3-5h3--3-3-----x-x--|
6.-----------------------|

1.-------------------------------|
2.-------------------------------|
3.-------------------------------|
4.-5-----------------------------5
5.-3--3-3-5h3--3-3-6h3------3h5--3
6.----------------------6-6------|

1.-----------------|
2.-----------------|
3.---------------3-|
4.---------------1-|
5.-3-3-5h3--3-3----|
6.-----------------|...


(3:21)

1.------------------------------|
2.------------------------------|
3.-----10h8-----8-8-----10h8----|
4.-10-------10------10-------10-|
5.------------------------------|
6.------------------------------|

1.------------------------------|
2.------------------------------|
3.-8h7-------10h8-----8---------|
4.-----8-10-------10----10-8--10
5.------------------------------|
6.------------------------------|

1.------------------------------|
2.------------------------------|
3.------------------------------|
4.-8----8--------------------10-|
5.---10---10-8----8--8----------|
6.-------------11------11-8-----|...





No hay comentarios:

Publicar un comentario en la entrada