.

banners

Tabs Fácil de... Divine termination. Chickenfoot.

  Los fundadores de Chickenfoot, por todos conocidos, vuelven a juntarse para publicar un disco recopilatorio en directo. En él, han incluido un tema extra "Divine termination" el cual, hemos elegido para dejaros un momento en tablatura aquí, en tablaturas fáciles.
  Así que preparar la guitarra que vuelve Satriani a tablaturas fáciles en forma de megabanda, Chickenfoot.
  Un saludo.
  TabsFácil.




Divine termination. Chickenfoot.

1.------------------------------|
2.------------------------------|
3.----------------------6-------|
4.-/8-6-------------6-8---8-6-8-|
5.------9-6--6--6-9-------------|
6.------------------------------|

1.------------------------|
2.------------------------|
3.---------------7--7--7--|
4.-/8-6----------8--8--8--|
5.------9-6--6---8--8--8--|
6.---------------6--6--6--|

1.------------------------------|
2.------------------------------|
3.----------------------6-------|
4.-/8-6-------------6-8---8-6-8-|
5.------9-6--6--6-9-------------|
6.------------------------------|

1.------------------------|
2.---------------7--7--7--|
3.---------------8--8--8--|
4.-/8-6----------8--8--8--|
5.------9-6--6---6--6--6--|
6.------------------------|...


No hay comentarios:

Publicar un comentario