.

banners

Tablatura fácil de...Hermano americano. Obus






   35 años de carrera, nada más y nada menos que cumplen los veteranos Obús. Para celebrarlo recientemente dieron un concierto en la Sala La Riviera, concierto que aprovecharan para grabar y presentar próximamente como DVD y CD y es que no es para menos, ya que no se cumplen 35 años de carrera musical todos los días.
  Obús una banda a la que queremos mucho aquí en tablaturas fáciles y de la que os queremos dejar unos momentos en tablatura del tema "Hermano americano." 
  Un saludo.
  TabsFácil.




Hermano americano. Obus

1.-----------------
2.-----------------
3.-----------2-----
4.---2-------0-----
5.---0---3-------5-
6.-------1-------3-  por dos veces.


(0:22)                     “Amigo americano…
1.------------------------------------------
2.------------------------------------------
3.------------------------------------------
4.-2---2---2--------------------------5---5-
5.-0---0---0---5---3---3------3---5---3---3-
6.-------------3---1---1------1---3---------

1.------------------------------------------
2.------------------------------------------
3.------------------------------------------
4.---5---2----------------------2---2------2
5.---3---0---5---5------2---5---0---0------0
6.-----------3---3------0---3---------------


1.--------------------------------------------
2.--------------------------------------------
3.--------------------------------------------
4.-------------------------5---5------5---2---
5.-5---3---3------3---5---3---3------3---0---5
6.-3---1---1------1---3----------------------3


(0:40)Estribillo
1.-----------------
2.-----------------
3.-----------2-----
4.---2-------0-----
5.---0---3-------5-
6.-------1-------3-


(1:52)    …”Recuerdo…”
1.--------------------------------------
2.--------------------------------------
3.--------------------------------------
4.---------------0-2-0---0-0------------
5.---3---7---5---------3-------3---7---5
6.---1---5---3-----------------1---5---3



(1:49)Acompañamiento solo

1.-----------------
2.-----------------
3.-----------2-----
4.---2-------0-----
5.---0---3-------5-
6.-------1-------3- 


(1:49) Solo
1.--------------------------------------------------
2.--------------------------------------------------
3.----14----12h14--/14-12-10---12/10----------------
4.-14----14--------------------------14/12--12-12-12
5.--------------------------------------------------
6.--------------------------------------------------

1.-------------------------------------------
2.-------------------------------------------
3.—--(H)-------------------------------------
4.-9-12---9h10h9h7------5-7(9)(7)-5-7(9)(7)-5
5.-------------------------------------------
6.------------------4------------------------


(1:57)
1.--------------------------------------------------
2.-------------------17-17(18)(17)-15---------------
3.-------17-------17-------------------17(19)(17)-19
4.-17h19----17-19-----------------------------------
5.--------------------------------------------------
6.--------------------------------------------------

1.-------------------------------
2.-------------------------------
3.---19(21)(19)(21)(19)-17-------
4.-------------------------21-19-
5.-------------------------------
6.-------------------------------

No hay comentarios:

Publicar un comentario