.

banners

Tablatura fácil de...Espero que me disculpen. Ariel Rot.



  Del último trabajo de Ariel Rot, "La manada" sale su último sencillo, "Espero que me disculpen" un tema en el que el veterano rockero de procedencia argentina se rodea, nada mas y nada menos que de la banda valenciana Los Zigarros, una de las bandas de rock más en auge del momento.
  En tablaturas fáciles te queremos dejar como siempre, un momento en tablatura del tema, que esperamos que os guste y disfrutéis.
  Un saludo.
  TabsFácil.




Espero que me disculpen. Ariel Rot.


(2:01)

1.----------------------------|
2.----------------------------|
3.-9(11)--9(11)--9(11)(9)-7-9-7
4.-----------------------------
5.----------------------------|
6.----------------------------|

1.----------------------------|
2.----------------7-----------|
3.-7-----7--9(11)---9(11)(9)-7
4.---9-7----------------------|
5.----------------------------|
6.----------------------------|

1.----------------------------|
2.-7------7-------7-------7---|
3.---9(11)--9(11)----9(11)----|
4.----------------------------|
5.----------------------------|
6.----------------------------|

1.----------------------------|
2.----------------------------|
3.-9(11)(9)-7------7----7-/9-7
4.------------9-7----9--------|
5.----------------------------|
6.----------------------------|

1.----------------------------|
2.----------------12-14--/16-16
3.-------------13-------------|
4.-7/-9-7---------------------|
5.--------7-5-----------------|
6.----------------------------|

1.----------------------------|
2.----12-14/-16-16----12-14-/16
3.-13--------------13---------|
4.----------------------------|
5.----------------------------|
6.----------------------------|

1.----------------------------|
2.-12--12----12-----12-14-/16-|
3.--------13-----13-----------|
4.----------------------------|
5.----------------------------|
6.----------------------------|

1.---------------/14----------|
2.-12--12----12------14(15)-12
3.--------13------------------|
4.----------------------------|
5.----------------------------|
6.----------------------------|

1.------------------------|
2.----12---------12----12-|
3.-13---------13----13----|
4.--------/14-------------|
5.------------------------|
6.------------------------|...



No hay comentarios:

Publicar un comentario en la entrada