.

banners

Tablatura fácil de... Sol negro. Alquimia.

  
                               
    "Sol negro" era el tema adelanto de lo que sería el nuevo disco,  de Alquimia, el último proyecto de uno de los grandes guitarristas de nuestro país, Alberto Rionda, antes de que se embarcase en el crowdfunding para la regrabación con motivo del XV aniversario del disco "El ángel caído"
   Os quiero dejar unos momentos en tablatura del tema que, como siempre, espero que os guste y disfrutéis.
  Un saludo.
  TabsFácil.



Sol negro. Alquimia.


1.-----------------------------------

2.-----------------------------------
3.-----------------------------------
4.-----------------------------------
5.----------------------------5--5-5-
6.--5-5-5-5-5-5--6-6-6-6-6-6---------

1.-----------------------------------

2.-----------------------------------
3.-----------------------------------
4.-----------------------------------
5.--5-5-5-5-5-5-5-5--1--1-1-1-1-1-1-1
6.-----------------------------------

1.-----------------------------------

2.-----------------------------------
3.-----------------------------------
4.-----------------------------------
5.--1-1-1--3--3-3-3-3-3-3-3-3-3-3-3--
6.-----------------------------------

1.-----------------------------------

2.-----------------------------------
3.-----------------------------------
4.-----------------------------------
5.-----------------------------5--5-5
6.--5-5-5-5-5-5--6-6-6-6-6-6---------

1.-----------------------------------

2.-----------------------------------
3.-----------------------------------
4.-----------------------------------
5.--5-5-5-5-5-5-5-5--1--1-1-1-1-1-1-1
6.-----------------------------------

1.-----------------------------------

2.-----------------------------------
3.-----------------------------------
4.-----------------------------------
5.--1-1-1--3--3-3-3-3-3-3-3-3-3-3-3--
6.-----------------------------------

                            (1:02)

1.-----------------------------------
2.-----------------------------------
3.-----------------------------------
4.-----------------------------------
5.-----------------------------5-5--5
6.--5-5-5-5-5-5--6-6-6-6-6-6---------

"Quién gobernó la vida y escribió 

1.-----------------------------------
2.-----------------------------------
3.-----------------------------------
4.-----------------------------------
5.--5-5--5-5-5-5--3-3--3--1-1--1-0---
6.---------------------------------1-

el final...

1.-----------------------------------
2.-----------------------------------
3.-----------------------------------
4.-----------------------------------
5.--5-5--5--5------------------------
6.------------1--1-1-1-1-1-1--5-5-5-5

                ...los tiempos de gloria

1.-----------------------------------
2.-----------------------------------
3.-----------------------------------
4.-----------------------------------
5.----------5-7-8--5-5--5--5-5--5-5-5
6.--5-5--5---------------------------

maldita, se fueron ya, no volverán...

1.-----------------------------------
2.-----------------------------------
3.-----------------------------------
4.-----------------------------------
5.--5--3-3--3--1-1--1-0--------------
6.----------------------3--3-3-3-3-3-

1.-----------------------------------

2.-----------------------------------
3.-----------------------------------
4.------------------------7--7-7-7-7-
5.------------------------5--5-5-5-5-
6.--3-3--5-5-5-5-5-5-5-5-------------

...oh oh oh oh oh oh oh..."

1.----------------------------------
2.----------------------------------
3.----------------------------------
4.--7-7--9--9-9-9-9-9-9-10-10-10-10-
5.--5-5--7--7-7-7-7-7-7--8--8--8--8-
6.----------------------------------

1.-----------------------------

2.-----------------------------
3.-----------------------------
4.-10-10-10--5--5-5-5-5-5-5--2-
5.--8--8--8--3--3-3-3-3-3-3--0-
6.-----------------------------...

No hay comentarios:

Publicar un comentario