.

banners

Tablatura fácil de... Sentencia final. Débler.


   El próximo 31 de Marzo se estrenará "Somnia" un trabajo conceptual que recorre la historia del legendario personaje Sweeney Tood, el nuevo trabajo de Débler, una banda que nos causó una buena sensación cuando la descubrimos con la escucha de su primera obra, "Noctem diaboli"y de la que esperamos con muchas ganas ver como han evolucionado en su segundo trabajo.
  De momento ya tenemos adelanto "Sentencia final" y aquí en tablaturas fáciles te queremos dejar unos momentos en tablatura del tema, para que lo disfrutes y no dejes de practicar.
  Un saludo.
  TabsFácil.




Sentencia final. Débler.



1.-------------------------------|
2.-------------------------------|
3.-------------------------------|
4.-------------------------------|
5.-3------------------3----------2
6.-1--1-1-1-1--1-1-1--1--1-1-1-1-0

1.-------------------------------|
2.-------------------------------|
3.-------------------------------|
4.-------------------------------|
5.-3------------------3----------|
6.-1--1-1-1-1--1-1-1--1--1-1-1-1-|

1.-------------|
2.-------------|
3.-------------|
4.-------------|
5.-3/-6--5--3--|
6.-1/-4--3--1--|

1.-------------------------------|
2.-------------------------------|
3.-------------------------------|
4.-------------------------------|
5.-----------------3----------2--|
6.-1-1-1-1--1-1-1--1--1-1-1-1-0--|

1.-------------------------------|
2.-------------------------------|
3.-------------------------------|
4.-------------------------------|
5.-3------------------3----------|
6.-1--1-1-1-1--1-1-1--1--1-1-1-1-|

1.--------------------|
2.--------------------|
3.--------------------|
4.-----5---4--3-------|
5.-3---3---2--1--4--3-|
6.-1-------------2--1-|...


(0:55) "Hoy la sangre...

1.------------------------------|
2.------------------------------|
3.------------------------------|
4.-----8---10---6-------8-8-8-8-|
5.-6---6----8---4---6---6-6-6-6-|
6.-4----------------4-----------|...


(2:20)

1.----------15----16--18--19(20)
2.----18------------------------|
3.-17----17----17---------------|
4.------------------------------|
5.------------------------------|
6.------------------------------|

1.-(19)(20)-----16-15-----------|
2.----------/16-------16--------|
3.-----------------------15-13--|
4.-----------------------------17
5.------------------------------|
6.------------------------------|

1.------------------------------|
2.------------------------------|
3.----/12-----------------------|
4.-13-----13-15-----------------|
5.--------------/15--13h15h13h11
6.------------------------------|

1.------------------------------|
2.------------------------------|
3.------------------------------|
4.------------------------------|
5.-15--11-13--10-10--11-11--10h11
6.------------------------------|

1.------------------------------|
2.------------------------------|
3.---------------------/10--/12-|
4.-------------8-10-11----------|
5.-h10h8-10-11------------------|
6.------------------------------|

1.------------------------------|
2.------------------------------|
3.-/13-----13-12-------15-12----|
4.-----13--------15-13-------15-|
5.------------------------------|
6.------------------------------|

1.------------------------------|
2.------------------------------|
3.----13-12-------15-12-------13
4.-13-------15-13-------15-13---|
5.------------------------------|
6.------------------------------|

1.-------------------|
2.-------------------|
3.-12-------15-13----|
4.----15-13-------13-|
5.-------------------|
6.-------------------|...


(2:40)

1.-------------------6-6-6-6--8
2.------/9-8-6-----------------|
3.-/10---------8---------------|
4.---------------10------------|
5.-----------------------------|
6.-----------------------------|

1.-8-8-8--9-9-9-9--11-11-11-11-|
2.-----------------------------|
3.-----------------------------|
4.-----------------------------|
5.-----------------------------|
6.-----------------------------|

1.-13-13-13-13--15-15-15-15--16
2.-----------------------------|
3.-----------------------------|
4.-----------------------------|
5.-----------------------------|
6.-----------------------------|

1.-16-16-16--18-18-18-18-20-|
2.--------------------------|
3.--------------------------|
4.--------------------------|
5.--------------------------|
6.--------------------------|...



No hay comentarios:

Publicar un comentario en la entrada