.

banners

Tablatura fácil de... Santa Bárbara. Avalanch.



   La banda de Alberto Rionda, Avalanch, regresa a la actualidad metalera con nueva formación, nada más y nada menos que con la intención de regrabar su famoso álbum "El ángel caído" cuarto álbum de la banda y uno de los trabajos, si no el que más, aclamado de la formación.
  Atrás quedan, antiguas formaciones, y el último proyecto del guitarrista, Alquimia. Para esta nueva andadura la banda se ha embarcado en una campaña de crowdfunding para que todos los seguidores de la banda colaboren en la regrabación de dicho álbum.
  Mientras esperamos, en tablaturas fáciles os queremos dejar un breve momento en tablatura de uno de los temas de la primera grabación del disco, "Santa Bárbara."
   Un saludo.
  TabsFácil.





Santa Bárbara. Avalanch.


1.------------------------------|
2.------9--8-9-11-9-------------|
3.-/8-8-------------8-8--/8-9-8-|
4.------------------------------|
5.------------------------------|
6.------------------------------|

1.------------------------------|
2.--------------------------9--8
3.-6-8------8-8(9)(8)--/8-8-----|
4.-----9-11---------------------|
5.------------------------------|
6.------------------------------|

1.------------------------------|
2.-9-11-9-----------------------|
3.--------8--/8-9--/8-6-8------8
4.------------------------9-11--|
5.------------------------------|
6.------------------------------|

1.------------------------------|
2.-12-14h14(16)--14(16)-14(16)--|
3.------------------------------|
4.------------------------------|
5.------------------------------|
6.------------------------------|

1.---------------------------------|
2.-14(16)-14-12----12-14--14(16)(14)
3.--------------15-----------------|
4.---------------------------------|
5.---------------------------------|
6.---------------------------------|

1.------------------------------|
2.-12----------12---------------|
3.----15-13-15-----15-16-15-13--|
4.------------------------------|
5.------------------------------|
6.------------------------------|

1.------------------------------|
2.-15-16-15----15---------------|
3.----------16----16-15-16--15--|
4.------------------------------|
5.------------------------------|
6.------------------------------|

1.------------------------------|
2.------------------------------|
3.-13h15h13-12------18-18(20)---|
4.---------------21-------------|
5.------------------------------|
6.------------------------------|

1.------------------------------|
2.------------------------------|
3.-18(20)-18(20)--18(20)(18)-16-|
4.------------------------------|
5.------------------------------|
6.------------------------------|

1.--------------------|
2.--------------------|
3.-18-18(20)(18)-16h18
4.--------------------|
5.--------------------|
6.--------------------|...





No hay comentarios:

Publicar un comentario