.

banners

Tablatura fácil de... Mountain climbing. Joe Bonamassa.


   "Mountain climbing" es el segundo corte del último trabajo del fabuloso guitarrista de blues/rock Joe Bonamassa. En su último trabajo "Blues of desperation" Joe Bonamassa ha querido reflejar la evolución de su estilo y no solo lo consigue, sino que además colocó el disco en las primeras posiciones de las listas de éxitos de su país en los primeros días de su lanzamiento.
  Desde Tablaturas fáciles os queremos dejar unos momentos en tablatura del tema en cuestión, que esperamos que os guste y disfrutéis.
  Un Saludo.
  TabsFácil.




Mountain climbing. Joe Bonamassa.


1.-----------------------------|
2.-----------------------------|
3.-----------------------------|
4.-7---------------5/6-5---5---7
5.-5------5-8--5-8-------8---5-5
6.----5-8----------------------|

1.-----------------------------|
2.-----------------------------|
3.-----------------------------|
4.-7---------------5/6-5---5---7
5.-5------5-8--5-8-------8---5-5
6.----5-8----------------------|

1.-----------------------------|
2.-----------------------------|
3.-----------------------------|
4.-7---------------5/6-5---5---7
5.-5------5-8--5-8-------8---5-5
6.----5-8----------------------|

1.-----------------------------|
2.-----------------------------|
3.-----------------------------|
4.-7---------------5/6-5---5---7
5.-5------5-8--5-8-------8---5-5
6.----5-8----------------------|...


(2:49)

1.-----------------------------|
2.---------------------21(22)-20
3.-19-(21)(19)-17--------------|
4.----------------17-----------|
5.-----------------------------|
6.-----------------------------|

1.-----------------------------|
2.-18--20-18-------------------|
3.-----------19--19/22--17(19)-|
4.-----------------------------|
5.-----------------------------|
6.-----------------------------|

1.-----------------------------|
2.-----------------------------|
3.-(19)(17)-----/10--8h7-----19
4.----------17-----------10----|
5.-----------------------------|
6.-----------------------------|

1.-----------------------------|
2.----20-20(21)--18--20(21)(20)
3.-22--------------------------|
4.-----------------------------|
5.-----------------------------|
6.-----------------------------|

1.-----------------------------|
2.---------------20-----------20
3.-19--19(20)-17----19(20)-17--|
4.-----------------------------|
5.-----------------------------|
6.-----------------------------|...




No hay comentarios:

Publicar un comentario