.

banners

Tablatura fácil de... Malagueña salerosa. Víctor de Andrés.




   Si hay un guitarrista nacional por el que sintamos especial devoción, es sin duda, Víctor de Andrés, al que seguimos desde hace ya unos cuantos años, y es que ya apuntaba maneras en su forma de tocar la guitarra con ese estilo en sus temas y covers tan épico y que tanto nos gusta.
  Hoy en tablaturas fáciles volvemos a dejaros unos momentos en tablatura de uno de sus últimos covers o arreglos, el que pertenece a "Malagueña salerosa" que esperamos que os guste y disfrutéis.
  Un saludo.
  TabsFácil.






Malagueña salerosa. Víctor de Andrés.

(0:09)

1.-------------------------------|
2.---------5---------5---------5-|
3.---6---6-----6---6-----6---6---|
4.-7---7-----7---7-----7---7-----|
5.-------------------------------|
6.-------------------------------|

1.-------------------------------|
2.---------------6---------6--/8-|
3.-7-6-7---7---7-----7---7-------|
4.-------7---7-----7---7---------|
5.-------------------------------|
6.-------------------------------|

1.-------------------------------|
2.-6-6--------------------8------|
3.-----9--9-7-9----9----9------9-|
4.--------------10---10-----10---|
5.-------------------------------|
6.-------------------------------|

1.-------------------------------|
2.------8--10(11)(10)(11)-8-8----|
3.----9-----------------------10-|
4.-10----------------------------|
5.-------------------------------|
6.-------------------------------|

1.-------------------------------|
2.----------------10-10/12-10----|
3.-10-9-10--10-12-------------12-|
4.-------------------------------|
5.-------------------------------|
6.-------------------------------|

1.-------------------------------|
2.-10----------------------------|
3.----12-10-12-10--9-10-9-----HH-|
4.------------------------12--11-|
5.-------------------------------|
6.-----------------------------|...


(0:56)

1.-------------------------------|
2.-------------------------------|
3.---6--/9-----------------------|
4.-7--------/7-5--5h7h5--------7-|
5.----------------------8--5-8---|
6.-------------------------------|

1.-------------------------------|
2.-----------------5-------------|
3.-7-5-4-7-5--/5-5---5--/5-------|
4.-------------------------8-8-7-|
5.-------------------------------|
6.-------------------------------|

1.--------------------------|
2.--------------------------|
3.--------------------------|
4.---5-7-8-5--7h8h7-5--8-7--|
5.-8------------------------|
6.--------------------------|...



No hay comentarios:

Publicar un comentario en la entrada