.

banners

Tablatura fácil de... Crónicas de un tiempo raro. Asfalto.





  "Crónicas de un tiempo raro" es el título del último trabajo y con el que vuelven a la carga la mítica banda de Julio Castellón, Asfalto. Un disco compuesto por 13 canciones que nos hablan de lo que está pasando en la calle, en este tiempo raro que nos está tocando vivir y en la que encontraremos una mezcla de pop/rock con ese toque progresivo al que nos tiene acostumbrados la banda.
   Hoy os queremos dejar unos momentos en tablatura del segundo adelanto del disco que lleva por título, al igual que el plástico al completo "Crónicas de un tiempo raro."
  Un saludo.
  TabsFácil.





Crónicas de un tiempo raro. Asfalto.


1.----------------------------|
2.----------------------------|
3.------------------------0-2-|
4.----------------------2-----|
5.-0-0-0--0-0-0--0-0-0--------|
6.----------------------------|

1.----------------------------|
2.-1--------------------------|
3.---2-0----------------------|
4.----------------------------|
5.-------0-0-0--0-0-0--0-0-0--|
6.----------------------------|

1.----------------------------|
2.----------------------------|
3.------------------------0-2-|
4.----------------------2-----|
5.-0-0-0--0-0-0--0-0-0--------|
6.----------------------------|

1.--------------------------------|
2.-1------------------------------|
3.---2-0--------------------------|
4.--------------------------------|
5.-------0-0-0--0-0-0--0-0-0------|
6.----------------------------2-3-4

1.----------------------------|
2.----------------------------|
3.------------------------0-2-|
4.----------------------2-----|
5.-0-0-0--0-0-0--0-0-0--------|
6.----------------------------|

1.--------------------------------|
2.-1------------------------------|
3.---2-0--------------------------|
4.--------------------------------|
5.-------0-0-0--0-0-0--0-0-0------|
6.----------------------------2-3-4...


(1:57)  ..."De - mo - cra - cia...

1.--------------------------------|
2.--------------------------------|
3.--------------------------------|
4.-------2----------2---------2---|
5.-/5-3----3--/5-3----3--/5-3---3
6.--------------------------------|

1.------------------------------|
2.------------------------------|
3.------------------------------|
4.--------2-----------------2---|
5.-/5-3-5---5-3--------/5-3---3-|
6.--------------5-3-5-----------|

1.--------------------------------|
2.--------------------------------|
3.--------------------------------|
4.------2---------2---------------|
5.-/5-3---3--/5-3---3--/5-3-5-3-5
6.--------------------------------|

1.-------------------------|
2.-------------------------|
3.-------------------------|
4.-2-----------------------|
5.---5-3------0-0-0--0-0-0-|
6.-------5-3---------------|...


(4:02)

1.-------------------------------|
2.--------10--------10-10(11)-10
3.-7-9-10----1-9-10--------------|
4.-------------------------------|
5.-------------------------------|
6.-------------------------------|

1.---------------------------------|
2.--------10--------10-11(12)-14(15)
3.-7-9-10----1-9-10----------------|
4.---------------------------------|
5.---------------------------------|
6.---------------------------------|

1.---------------------------------|
2.-------------------------18(19)-18
3.----------14----------14---------|
4.-12-14-15----12-14-15------------|
5.---------------------------------|
6.---------------------------------|

1.---------------------------------|
2.---------------------------------|
3.----------14----------14-18(19)-18
4.-12-14-15----12-14-15------------|
5.---------------------------------|
6.---------------------------------|...



No hay comentarios:

Publicar un comentario en la entrada