.

banners

Acordes y tablatutra fácil de...The blackest of my hearts. Elvenking.





  El grupo italiano de folk metal, Elvenking, lanzaban en 2008 "Two tragedy poets" un álbum, el número 5 de su carrera, con el que intentaban devolver a su estilo todo el folk, y en el que sobresalían los temas acústicos.
  En Tablaturas fáciles queremos dejarte, los acordes y unos momentos en tablatura de una de las piezas que formaban el disco, "The blackest of my hearts", un bonito tema de una buena banda que esperamos que os guste y disfrutéis.
  Un saludo.
  TabsFácil.







The blackest of my hearts. Elvenking.


1.------------------------------------------------
2.-----5-----5-----5-3------------------3/5-3-----
3.-4h5---4h5---4h5-----5-4----5---4-5-4-------5-4-
4.-------------------------7----7-----------------
5.------------------------------------------------
6.------------------------------------------------

1.------------------------------------------------
2.-----5-----5-----5-3------------------3/5-3-----
3.-4h5---4h5---4h5-----5-4----5---4-5-4-------5-4-
4.-------------------------7----7-----------------
5.------------------------------------------------
6.------------------------------------------------

1.-8-10-12---8-10-12---8-10-12-/10-8-------8---
2.-----------------------------------12-10---10
3.---------------------------------------------
4.---------------------------------------------
5.---------------------------------------------
6.---------------------------------------------

1.---------8-----12-10-8---------
2.---10-12---12----------12-10---
3.-------------------------------
4.-------------------------------
5.-------------------------------
6.-------------------------------

1.-8-10-12---8-10-12---8-10-12-/10-8-------8----
2.-----------------------------------12-10---10-
3.----------------------------------------------
4.----------------------------------------------
5.----------------------------------------------
6.----------------------------------------------

1.---------8-----12-10-8---------
2.---10-12---12----------12-10---
3.-------------------------------
4.-------------------------------
5.-------------------------------
6.-------------------------------


Lam
Maybe I should cry, maybe I should deny

          Fa           Sol
my tired face looking so grim

Lam
A jarful of thoughts is waiting under the sheets,

   Fa          Sol
another sleepless night

Fa                       Sol
I don't feel ashamed, I feel no guilt

Fa         Sol     Lam
I need to stay alive

Fa                       Sol
Since there is no time, since the sands still flow

Fa       Sol
I will be there

Lam
The blackest of my hearts, the sweetest of my words

Fa               Sol
Am I strong enough?

Lam
I'll never forget, everything lives

Fa                     Sol
Until my flesh will be no more

Lam
A sense of deep frustration tinges with black my heart

Fa             Sol
I cannot cry I want to die

Lam
A grandeur manifestation of a wrong self-addiction

     Fa                  Sol
There's no end to ease this pain

Fa                  Sol
Lost in those eyes, stolen by that scent

Fa        Sol     Lam
digging down my skin

Fa                     Sol
Shivers that cut like sharpened knives

Fa          Sol          Lam
my wounds, will they ever heal?



1.---------------------------------------------
2.---------------------------------------------
3.---5-5---5-5---3-5-----------3-5---3-5—5-5---
4.-------------------2---2-4-5-----------------
5.---------------------------------------------
6.---------------------------------------------

1.-----------------------
2.-----------------------
3.---3-5-----------------
4.-------2---2-4-5-4-2---
5.-----------------------
6.-----------------------

1.---------------------------------------------
2.---------------------------------------------
3.---5-5---5-5---3-5-----------3-5---3-5—5-5---
4.-------------------2---2-4-5-----------------
5.---------------------------------------------
6.---------------------------------------------

1.-----------------------
2.-----------------------
3.---3-5-----------------
4.-------2---2-4-5-4-2---
5.-----------------------
6.-----------------------


Do            Sol               Do         Lam
This story is a black spiral without an end,

Fa             Sol          Lam
carry me follow me deep into this hell

Do           sol             Lam   Fa     sol         Lam
Take my hand know and everyday of a life that won't exist

Do            sol      Do     Lam   Fa    Sol        Lam
Are we gonna meet again someday? so many years from now

Do         Sol       Do  Lam     Fa      Sol        Lam
When I'm asking you is more than everything, no more compromises



1.---------------------------------------------
2.---------------------------------------------
3.---5-5---5-5---3-5-----------3-5---3-5—5-5---
4.-------------------2---2-4-5-----------------
5.---------------------------------------------
6.---------------------------------------------

1.-----------------------
2.-----------------------
3.---3-5-----------------
4.-------2---2-4-5-4-2---
5.-----------------------
6.-----------------------

No hay comentarios:

Publicar un comentario en la entrada