.

banners

Acordes de... Lágrimas de mármol. Joaquin Sabina.



    "Lágrimas de mármol" es el segundo adelanto del esperado trabajo de Joaquín Sabina, "Lo niego todo" que saldrá a primeros de Marzo. Cómo todos ya sabréis, para éste último disco se ha rodeado de nada más y nada menos que de Leiva como productor del disco, "Voy a juntarme con un jovenzuelo que me gusta mucho, a ver si renovamos un poco el aire",  son palabras textuales del propio artista.
   En Tablaturas fáciles os queremos dejar los acordes de "Lágrimas de mármol" para los que les guste tocar las canciones de Sabina.
   Un saludo.
   TabsFácil.





Lágrimas de mármol. Joaquin Sabina.


Si  -  La#m  -  Sol·m  -  Fa#  -  Do#m - Sol  -  Si-  Fa#
  
Si                                    Mi
   El tren se aleja, el tiempo pasa

Si                               Fa#
la vida alrededor ya no es tan mía

Sol#m                            Mi
desde el observatorio de mi casa

Si                      Fa#
la fiesta se resfria.

Si                                          Mi
Los pocos que me quieren no me dejan

Si                               Fa#
perderme solo por si disparato

Sol#m                            Mi
no tengo dirección para mis quejas

Si                      Fa#
que tocan a rebato.

Sol#m                          Mi
Acabaré como una puta vieja

Si                      Fa#
hablando con mis gatos.

Si                                    Mi
Superviviente, sí, ¡maldita sea!

Fa#                                  Sol#m
nunca me cansaré de celebrarlo

Re#                                  Mi
antes de que destruya la marea

Fa#                                        Si
las huellas de mis lágrimas de mármol

Do#m             Re#                Mi  Fa#
si me tocó bailar con la más fea

                    Si
viví para contarlo.

  La#m  -  Sol·m  -  Fa#  -  Do#m - Sol  -  Si-  Fa#

Si                                    Mi
Dejé de hacerle selfies a mi ombligo

Si                                          Fa#
cuando el ictus lanzó su globo sonda

Sol#m                                       Mi
me duele más la muerte de un amigo

Si                                    Fa#
que a la que a mi me ronda.

Si                                    Mi
Con la imaginación, cuando se atreve

Si                                         Fa#
sigo mordiendo manzanas amargas

Do#m           Si                         Mi
pero el futuro es cada vez más breve

              Fa#
y la resaca larga.

Si                                    Mi
Superviviente, sí, ¡maldita sea!

Fa#                                  Sol#m
nunca me cansaré de celebrarlo

Re#                                  Mi
antes de que destruya la marea

Fa#                                        Si
las huellas de mis lágrimas de mármol

Do#m             Re#                Mi  Fa#
si me tocó bailar con la más fea

                    Si
viví para contarlo.



1.------------------------------|
2.------------------------------|
3.-----------------11--------11-|
4.--------9-11(13)----11(13)----|
5.-9-/-11-----------------------|
6.------------------------------|

1.------------------------------|
2.------------------------------|
3.--------11---------11---------|
4.-11(13)-----11(13)----(13)(11)
5.------------------------------|
6.------------------------------|

1.------------------------------|
2.------------------------------|
3.--------------------13(15)(13)
4.-9----9--11(13)-11------------|
5.---11-------------------------|
6.------------------------------|

1.------------------------------|
2.------------14--14-14-14------|
3.-11--13(15)--------------13(15)
4.------------------------------|
5.------------------------------|
6.------------------------------|

1.------------------------------|
2.-----------------9--11--11(12)
3.-(13)h11--9--11---------------|
4.------------------------------|
5.------------------------------|
6.------------------------------|

1.--------------------------------|
2.-(11)-9---------8--11(12)(11)(12)
3.---------9--11------------------|
4.--------------------------------|
5.--------------------------------|
6.-----------------------------|...




No hay comentarios:

Publicar un comentario en la entrada