.

banners

TabsFácil de...Asleep in the deep. Mastodon.


mastodon en tabs facil.

   Si eres seguidor de Mastodon, seguro que has leído decenas de artículos en los que se especulaba con el nuevo trabajo de la banda. Recientemente ellos mismos están publicando unos videos en YouTube con los que se supone están promocionando  y preparándonos  para lo que es un nuevo trabajo ya grabado  y de inminente salida.
  Mientras esperamos, aquí os dejo  un interesante momento en tablatura de uno de los temas de su hasta la fecha último plástico. El tema "Asleep in the deep" con el que espero que disfrutéis.
  Un saludo.
  TabsFácil.







Asleep in the deep. Mastodon.

1.---------------------------------
2.--------8-7--7-7h8h7-------------
3.------7--------------9-7---------
4.---/9--------------------10-9----
5.------------------------------10-
6.---------------------------------

1.---------------------------------
2.--------8-7--7-7h8h7-------------
3.------7--------------9-7---------
4.---/9--------------------10-9----
5.------------------------------10-
6.---------------------------------

1.---------------------------------
2.--------8-7--7-7h8h7-------------
3.------7--------------9-7---------
4.---/9--------------------10-9----
5.------------------------------10-
6.---------------------------------

1.---------------------------------
2.--------8-7--7-7h8h7-------------
3.------7--------------9-7---------
4.---/9--------------------10-9----
5.------------------------------10-
6.---------------------------------

1.---------------------------------
2.--------8-7--7-7h8h7-------------
3.------7--------------9-7---------
4.---/9--------------------10-9----
5.------------------------------10-
6.---------------------------------

1.---------------------------------
2.---------------------------------
3.--------7-6--6-6h7h6-------------
4.------9--------------9-7---------
5.---/9--------------------10-9----
6.------------------------------10-

1.---------------------------------
2.---------------------------------
3.--------7-6--6-6h7h6-------------
4.------9--------------9-7---------
5.---/9--------------------10-9----
6.------------------------------10-


1.---------------------------------
2.---------------------------------
3.--------7-6--6-6h7h6-------------
4.------9--------------9-7---------
5.---/9--------------------10-9----
6.------------------------------10-


1.---------------------------------
2.---------------------------------
3.--------7-6--6-6h7h6-------------
4.------9--------------9-7---------
5.---/9--------------------10-9----
6.------------------------------10-...


No hay comentarios:

Publicar un comentario en la entrada