.

banners

Tabs fácil de... Suzerian. Anthrax.



     La mítica y pionera banda de thrash metal, Anthrax continúa siendo actualidad después de que volviera a la escena metalera con su álbum "For all kings."
    Multitudinaria gira y estreno reciente de nuevo sencillo "Suzerian" con el que os queremos dejar unos momentos en tablatura para tocar como no, al más puro estilo Anthrax. Nos hubiera gustado sacar el solo completo del tema pero no lo hemos conseguido, así, de todas formas Anthrax vuelve a 
tablaturas fáciles.
  Un saludo.
  TabsFácil.



Suzerian. Anthrax.


1.-----------------------------|
2.-----------------------------|
3.-----------------------------|
4.-----------------------------|
5.-----------------12-11-------|
6.-9-9-9-9-9-9-9-9-------9-9-9-|

1.-----------------------------|
2.-----------------------------|
3.-----------------------------|
4.-----------------------------|
5.-------------12-11-----------|
6.-9-9-9-9-9-9-------9-9-9-9-9-|

1.-----------------------------|
2.-----------------------------|
3.-----------------------------|
4.-----------------------------|
5.-------12-11---------11-10---|
6.-9-9-9-------9-9-9-9-------9-|

1.------------|
2.------------|
3.------------|
4.------------|
5.-------10-9-|
6.-9-9-9------|

1.-----------------------------|
2.-----------------------------|
3.-----------------------------|
4.-----------------------------|
5.-----------------12-11-------|
6.-9-9-9-9-9-9-9-9-------9-9-9-|

1.-----------------------------|
2.-----------------------------|
3.-----------------------------|
4.-----------------------------|
5.-------------12-11-----------|
6.-9-9-9-9-9-9-------9-9-9-9-9-|

1.-----------------------------|
2.-----------------------------|
3.-----------------------------|
4.-----------------------------|
5.-------12-11---------11-10---|
6.-9-9-9-------9-9-9-9-------9-|

1.------------|
2.------------|
3.------------|
4.------------|
5.-------10-9-|
6.-9-9-9------|


1.-----------------------------|
2.-----------------------------|
3.-----------------------------|
4.-----------------14-13-------|
5.-----------------12-11-------|
6.-9-9-9-9-9-9-9-9-------9-9-9-|

1.-----------------------------|
2.-----------------------------|
3.-----------------------------|
4.-------------14-13-----------|
5.-------------12-11-----------|
6.-9-9-9-9-9-9-------9-9-9-9-9-|

1.-----------------------------|
2.-----------------------------|
3.-----------------------------|
4.-------14-13---------13-12---|
5.-------12-11---------11-10---|
6.-9-9-9-------9-9-9-9-------9-|

1.-------------|
2.-------------|
3.-------------|
4.-------12-11-|
5.-------10-9--|
6.-9-9-9-------|

1.-----------------------------|
2.-----------------------------|
3.-----------------------------|
4.-----------------14-13-------|
5.-----------------12-11-------|
6.-9-9-9-9-9-9-9-9-------9-9-9-|

1.-----------------------------|
2.-----------------------------|
3.-----------------------------|
4.-------------14-13-----------|
5.-------------12-11-----------|
6.-9-9-9-9-9-9-------9-9-9-9-9-|

1.-----------------------------|
2.-----------------------------|
3.-----------------------------|
4.-------14-13---------13-12---|
5.-------12-11---------11-10---|
6.-9-9-9-------9-9-9-9-------9-|

1.-----------------------------|
2.-----------------------------|
3.-----------------------------|
4.-------12-11-----------------|
5.-------10-9---11---11--11-11-|
6.-9-9-9--------9-----9--9--9--|...


(3:43)

1.-----------------------------|
2.-16(17)(16)-14-----16-17-17(19)
3.---------------16------------|
4.-----------------------------|
5.-----------------------------|
6.-----------------------------|

1.-----------------------------|
2.-(17)-16-----16(17)(16)-14---|
3.---------18----------------16
4.-----------------------------|
5.-----------------------------|
6.-----------------------------|

1.-----------------------------|
2.-16-17-17(19)(17)-16--19(21)-|
3.-----------------------------|
4.-----------------------------|
5.-----------------------------|
6.-----------------------------|...




No hay comentarios:

Publicar un comentario en la entrada