.

banners

Tabs fácil de... Sultan's curse. Mastodon.



   Después de  tres años en los que nos hemos cansado de ver publicaciones haciendo alusión a cuando saldría el nuevo trabajo, o si se estaba grabando, etc, etc, y después de ver unos pequeños videos elaborados por la banda con los que todos queríamos entender que el nuevo plástico ya estaba listo, por fin, ya hay portada, título del disco, fecha de salida y single adelanto.
   "Emperor of sand" llevará por título el próximo trabajo de Mastodon, que saldrá a la luz el 31 de Marzo y "Sultan's curse" es el título de su single adelanto en el que tablaturas fáciles, como no podía ser de otra manera, os queremos dejar unos momentos en tablatura del tema, como siempre esperando que lo disfrutéis.
  Un saludo.
  TabsFácil.




Sultan's curse. Mastodon.


(2:33)

1.----------------------------|
2.----------------------------|
3.----------4-2-5-----------5-|
4.-0--0-0-0-2-0-3--0--0-0-0-3-|
5.----------------------------|
6.----------------------------|

1.----------------------------|
2.----------------------------|
3.----------7-5-----------4-5-|
4.-0--0-0-0-5-3--0--0-0-0-2-3-|
5.----------------------------|
6.----------------------------|

1.----------------------------|
2.----------------------------|
3.-4-2--------4-2-5--------5-5
4.-2-0--0-0-0-2-0-3--0-0-0-3-3
5.----------------------------|
6.----------------------------|

1.--------------------------|
2.-1-----------1------------|
3.---2-------2---2-------2--|
4.-----3-2-3-------3-2-3----|
5.--------------------------|
6.--------------------------|

1.----------------------------|
2.----------------------------|
3.----------4-2-5-----------5-|
4.-0--0-0-0-2-0-3--0--0-0-0-3-|
5.----------------------------|
6.----------------------------|

1.----------------------------|
2.----------------------------|
3.----------7-5-----------4-5-|
4.-0--0-0-0-5-3--0--0-0-0-2-3-|
5.----------------------------|
6.----------------------------|

1.----------------------------|
2.----------------------------|
3.-4-2--------4-2-5--------5-5
4.-2-0--0-0-0-2-0-3--0-0-0-3-3
5.----------------------------|
6.----------------------------|

1.--------------------------|
2.-1-----------1------------|
3.---2-------2---2-------2--|
4.-----3-2-3-------3-2-3----|
5.--------------------------|
6.--------------------------|


1.------------------|
2.------------------|
3.-4--5---5-5-4-2---|
4.-2--3---3-3-2-0---|
5.------------------|
6.------------------|





No hay comentarios:

Publicar un comentario en la entrada