.

banners

Tabs fácil de... Game of Thrones. Emily Rose Hastings.

game_of_thrones_tabs

  Uno de los temas con más versiones, adaptaciones, covers y tabs es sin duda la banda sonora de la serie "Game of Thrones" o "Juego de Tronos" en castellano. También es sin duda, uno de los temas más épicos y quizás sea además por eso, por lo que todos los músicos del mundo quieren versionearla o adaptarla a su instrumento.
   En www.tabsfacil.es queríamos tener éste tema entre nuestro índice y nos hemos decantado por el último que hemos escuchado, que no por eso pierde su magia, toda una declaración de intenciones de una de las guitarristas más prolíficas en las redes sociales, Emily Rose Hastings que nos deja una versión en la que usa la guitarra para simular una orquesta...
  Un saludo.
  TabsFácil.





Game of Thrones. Emily Rose Hastings.


1.----------------------------|
2.------------------------8---|
3.--------------------------5-|
4.----------------------------|
5.----------------------------|
6.-x-x--x-x-x--x-x--x-x-x-----|

1.----------------------------|
2.---6-8-----6-8-----6-8---5-6
3.-8-----5-8-----5-8-----5----|
4.----------------------------|
5.----------------------------|
6.----------------------------|

1.----------------------------|
2.-8---5-6-8---5-6-8---5-6-8--|
3.---5-------5-------5-------5
4.----------------------------|
5.----------------------------|
6.----------------------------|

1.----------------------------|
2.----------------------------|
3.----------------------------|
4.-5----3-5-----3----3-------3
5.--3-6-----3-6---5------6-5--|
6.---------------------6------|

1.---------|
2.---------|
3.---------|
4.---------|
5.---6-5-3-|
6.-6-------|

1.----------------------------|
2.----------------------------|
3.----------------------------|
4.-5----3-5-----3----3-------3
5.--3-6-----3-6---5------6-5--|
6.---------------------6------|

1.---------|
2.---------|
3.---------|
4.---------|
5.---6-5-3-|
6.-6-------|

1.-15-------13-15-------13----|
2.----13-16-------13-16----15-|
3.----------------------------|
4.----------------------------|
5.----------------------------|
6.----------------------------|

1.-13----10-11-10-------------|
2.----11----------11-13--11(13)
3.----------------------------|
4.----------------------------|
5.----------------------------|
6.----------------------------|

1.----------------------------|
2.-11--8(9)-8--4----------11(13)
3.---------------8--7--5------|
4.----------------------------|
5.----------------------------|
6.----------------------------|

1.----------------------------|
2.-11--8(9)-8--4----6h4h3-----|
3.----------------8--------5--|
4.----------------------------|
5.----------------------------|
6.----------------------------|




No hay comentarios:

Publicar un comentario en la entrada