.

banners

Tablatura fácil de... Melani. Asfalto.




   El álbum número 17 de la banda de Julio Castejón, Asfalto ya está listo y preparado para salir a la luz a principios de Febrero, justo unos días antes de su concierto celebración de su 45 aniversario.
  Uno de los sencillos de adelanto que han elegido para presentar el trabajo es "Melani" para el que han contado con la colaboración de John Helliwell, músico saxofonista que ha dejado su marca personal sobre todo en la mítica banda Supertramp.
  Aquí en tablaturas fáciles queremos dejarte unos pequeños momentos en tablatura del tema, dos riffs o liks de guitarra muy reconocibles en el rock sinfónico, sobre todo el segundo.
  Esperamos que los disfrutéis.
  Un saludo.
  TabsFácil.



 Melani. Asfalto.


(2:53)

1.----------------------------|
2.----------------------------|
3.----------------------------|
4.-5-5-7-8--7h8h7h5--7-7-8-10-|
5.----------------------------|
6.----------------------------|

1.----------------------------|
2.----------------------------|
3.----------------------------|
4.-8h10h8h7--8-8-10-12--10h12h
5.----------------------------|
6.----------------------------|

1.----------------------------|
2.----------------------------|
3.-------12-------------------|
4.-10h8-------5-5-7-8--7h8h7h5
5.----------------------------|
6.----------------------------|

1.----------------------------|
2.----------------------------|
3.----------------------------|
4.-7-7-8-10--8h10h8h7--8-8-10-|
5.----------------------------|
6.----------------------------|

1.-------------------------|
2.-------------------------|
3.-----------------12--/7--|
4.-12--10h12h10h8----------|
5.-------------------------|
6.-------------------------|...


(3:48)

1.----------------------------|
2.----------------------------|
3.----------------------------|
4.-7--2--3--5-5--7--2--3------|
5.-5--0--1--3-3--5--0--1--3--5
6.------------------------1--3

1.------------------------------|
2.------------------------------|
3.------------------------------|
4.-7--2--3--5-5--7--2--3--------|
5.-5--0--1--3-3--5--0--1--3--5-5
6.------------------------1--3-3  ...



No hay comentarios:

Publicar un comentario en la entrada