.

banners

Tablatura fácil de... Las arenas de Palmira. Zenobia.


   "Las arenas de Palmira" es uno de los temas pertenecientes al último trabajo de Zenobia, "Alma de fuego 2" un disco con el que la banda nos sigue demostrando que son una banda muy a tener en cuenta en el panorama metalero español.
   Con este tema, muy en concordancia con la portada del disco, vamos a interpretar muy pocas notas, las suficientes para adentrarnos en el sugerente mundo de las mil y una noches, por ejemplo.
  Prepara tu pedalera o, en su defecto, juega con el volumen de tu guitarra e interpreta ésta bonita tablatura.
    Zenobia en tablaturas fáciles.
   Un saludo.
   TabsFácil.





Las arenas de Palmira. Zenobia.


1.--------------------------|
2.-8-----------------8--4-3-|
3.-----7---8--5--7----------|
4.--------------------------|
5.--------------------------|
6.--------------------------|

1.--------------------------|
2.-4--3---8-----------------|
3.---------------/4--/5--/7-|
4.------------5-------------|
5.--------------------------|
6.--------------------------|

1.--------------------------|
2.-/4---/3------------------|
3.-----------/5--/4---------|
4.--------------------9/5---|
5.--------------------------|
6.--------------------------|



No hay comentarios:

Publicar un comentario