.

banners

Tablatura fácil de... Cara a cara. Salvador Domínguez.


     "Recuperemeos la ilusión" así se llama el último trabajo del incombustible Salvador Domínguez, toda una institución en el mundo de la guitarra que nos vuelve a trasladar con este disco a aquellos maravillosos años...
   Hemos elegido unos momentos en tablatura del tema "Cara a cara" para practicar y divertirnos con este mago de las seis cuerdas, que tan buenos ratos nos ha hecho pasar y que tanto nos ha enseñado.
  Un saludo.
  TabsFácil.





Cara a cara. Salvador Domínguez.


1.-------------------------------|
2.-------------------------------|
3.-------------------------------|
4.-5-2------------------5-2-5-7-7
5.-3-0--0-0-0-0-0-0-0-0-3-0-3-5-5
6.-------------------------------|

1.-------------------------------|
2.-------------------------------|
3.-------------------------------|
4.-5-2------------------5-2-5-3--|
5.-3-0--0-0-0-0-0-0-0-0-3-0-3-3--|
6.-------------------------------|

1.-------------------------------|
2.-------------------------------|
3.-------------------------------|
4.-5-2------------------5-2-5-7-7
5.-3-0--0-0-0-0-0-0-0-0-3-0-3-5-5
6.-------------------------------|

1.-------------------------------|
2.-------------------------------|
3.-------------------------------|
4.-5-2------------------5-2-5-3--|
5.-3-0--0-0-0-0-0-0-0-0-3-0-3-3--|
6.-------------------------------|


2:32

1.-------------------------------|
2.-------------------------------|
3.---------------7--10-9---------|
4.---6-7-9--9-10------------6-7-9
5.-------------------------------|
6.-0----------------------0------|

1.-------------------------------|
2.--------------6-8-6-5---6-5----|
3.-----7--10-9----------7-----7-5
4.-9-10--------------------------|
5.-------------------------------|
6.-------------------------------|

1.-------------------------------|
2.---5--5-6-5-----5-3------------|
3.-7----------7-5-----5-4---4----|
4.------------------------7------|
5.-------------------------------|
6.-------------------------------|

1.-----------------------------|
2.-----------------------------|
3.-5-4----------7----5----2----|
4.-----7--5/7-----5----3----2--|
5.-----------------------------|
6.-----------------------------|...

No hay comentarios:

Publicar un comentario en la entrada