.

banners

Acordes y tablatura fácil de... Perdido Edén. Débler.




   Mientras esperamos el segundo y prometedor disco de  Débler aquí en tablaturas fáciles os queremos dejar unos acordes y tabs del solo del tema "Perdido Edén" en su versión acústica, perteneciente a su primer disco que tan buen sabor de boca nos dejó.
  Esperamos que os guste y disfrutéis.
  Un saludo.
  TabsFácil.






Perdido Edén. Débler.


Mim       Do                                 Re
 Basta, aún me atormenta el recuerdo

       Mim       Do                    Re
de su llanto, que yo no pude apagar.

Mim       Do                                 Re
Almas, que en su mirada solo reflejan

Mim    Do       Re
odio y crueldad.

Mim    Do           Sol            Re
Si yo pudiera volverte a abrazar

   Mim                  Do         Re         Mim
y quitar con tus besos esta tempestad

                    Do                  Sol          Re
con tus caricias que hoy me hacen viajar

Mim          Do         Re  Mim
tu y yo camino al edén.

Mim         Do                   Re
 Rotos, en mil pedazos igual que

             Mim       Do                  Re
tus promesas que nunca pude cumplir

Mim       Do                       Re
quiero volver a verte y poner final

         Mim   Do       Re 
a la oscura tempestad.

Mim    Do           Sol            Re
Si yo pudiera volverte a abrazar

   Mim                  Do         Re         Mim
y quitar con tus besos esta tempestad

                    Do                  Sol          Re
con tus caricias que hoy me hacen viajar

Mim          Do         Re  Mim
tu y yo camino al edén...


1.------------------------7-8-10-|
2.-7-8-10--7-8-10--8h7h8---------|
3.-------------------------------|
4.-------------------------------|
5.-------------------------------|
6.-------------------------------|

1.-8-7----7-8-7------------------|
2.-----10--------8-7-8-10--8h7---|
3.-----------------------------9-|
4.-------------------------------|
5.-------------------------------|
6.-------------------------------|

1.-------------------------------|
2.-8h7------7-8-7----8h7---8h7---|
3.-----9--9-------9------9-----9-|
4.-------------------------------|
5.-------------------------------|
6.-------------------------------|

1.--------/10-8-7h8h7-/5h7---5---|
2.-8h7---------------------8---8-|
3.-----9-------------------------|
4.-------------------------------|
5.-------------------------------|
6.-------------------------------|

1.-------------------------------|
2.-7-8-7-------------------------|
3.-------7-7-/9-9-----------7--9-|
4.-----------------5--7--9-------|
5.-------------------------------|
6.-------------------------------|







No hay comentarios:

Publicar un comentario en la entrada