.

banners

Acordes de... Lo niego todo. Joaquin Sabina.



  "Lo niego todo" llevará por nombre el próximo trabajo de Joaquin Sabina, para el que ha contado con Leiva para producirlo. El disco que saldrá a la venta en Marzo, ya tiene single adelanto de título homónimo al disco, "Lo niego todo"  y que supone el regreso a la actualidad musical después de su última entrega allá por el 2009.
   En tablaturas fáciles ya puedes encontrar los acordes del tema, del que esperamos que lo disfrutes y pases un buen rato.
  Un saludo.
  TabsFácil.



Lo niego todo. Joaquin Sabina.



Mi
Ni ángel de alas negras

La
ni profeta del vicio

Dom#                  Solm#
ni héroe en las barricadas

La 
ni ocupa, ni esquirol

Si
ni rey en los suburbios

Dom#
ni flor del precipicio

La                           Si
ni cantante de orquesta

Mi                            Si
ni el Dylan español.

Mi
Ni el abajo firmante

La
ni vendedor de humo

Dom#            Solm#
ni juglar del asfalto

La
ni rojo de salón

Si
ni escondo la pasión

Dom#
ni la perfumo

La                             Si
ni he quemado mis naves

Mi                          Si
ni sé pedir perdón.

Mi
Lo niego todo

La                              Mi
aquellos polvos y estos lodos


lo niego todo

La                   Si
incluso la verdad

Dom#               Solm#
la leyenda del suicida

Si                       Mi
y la del bala perdida

La
la del santo beodo

Si
si me cuentas mi vida

Mi
lo niego todo...


1.---------------------------|
2.-7/9-9--10-9-7----7/9-9--10
3.---------------9-----------|
4.---------------------------|
5.---------------------------|
6.---------------------------|

1.-------------------------|
2.-9-7----7/9-9--10-9-7----|
3.-----9----------------9--|
4.-------------------------|
5.-------------------------|
6.-------------------------|

1.----------------|
2.-7(9)(7)----7---|
3.---------7----9-|
4.----------------|
5.----------------|
6.----------------|

1.---------------------------|
2.-7/9-9--10-9-7----7/9-9--10
3.---------------9-----------|
4.---------------------------|
5.---------------------------|
6.---------------------------|

1.-------------------------------|
2.-9-7----7/9-9--10-9-7----10(12)|
3.-----9----------------9--------|
4.-------------------------------|
5.-------------------------------|
6.-------------------------------|








No hay comentarios:

Publicar un comentario