.

banners

Tabs fácil de... Twilight Of The Gods. Blind guardian.



   Teníamos guardado otro pedazo de Tabs perteneciente al último trabajo de los alemanes Blind Guardian y hoy hemos querido compartirlo con vosotros...
   Así que, ahí va, unos momentos de la tablatura de "Twilight of the Gods" que espero que os guste y la disfrutéis.
   Un saludo. 
   TabsFácil.





Twilight Of The Gods. Blind guardian.


(1:27)(Guitarra 1)
1.------------------------------------------------
2.------------------------------------------------
3.------------------------------------------------
4.--3-3-3--3-3-3-------3-3-3--3-3-3---------------
5.--1-1-1--1-1-1--1-2--1-1-1--1-1-1--1-2---1---2-1
6.---------------------------------------4---2----

(1:32)(Guitarra 1)
1.------------------------------------------------
2.------------------------------------------------
3.------------------------------------------------
4.--8-8--8-8-8----------------------------4-4-4--6
5.--6-6--6-6-6--4-4--4-4-4---6-6--6-6-6---2-2-2--4
6.--------------2-2--2-2-2---4-4--4-4-4-----------

(1:32)(Guitarra 2)
1.-----------11----9---9-9-9-8---9-9-9-11-9----9-
2.--/11---11----11---7---------9------------12---
3.------8----------------------------------------
4.-----------------------------------------------
5.-----------------------------------------------
6.-----------------------------------------------

(Guitarra 1)
1.------------------------------------------------
2.------------------------------------------------
3.------------------------------------------------
4.--8-8--8-8-8----------------------------4-4-4--6
5.--6-6--6-6-6--4-4--4-4-4---6-6--6-6-6---2-2-2--4
6.--------------2-2--2-2-2---4-4--4-4-4-----------


(Guitarra 2)
1.----------11----9--9-9-9-8---9-9-9-11-9----9---
2.-/11---11---11---7---------9------------12---11
3.-----8-----------------------------------------
4.-----------------------------------------------
5.-----------------------------------------------
6.--------------------------------------------...




No hay comentarios:

Publicar un comentario