.

banners

Tabs fácil de... Murder one. Metallica.


   Mientras el nuevo y flamante disco de Metallica sigue acaparando portadas de revistas, números uno en las listas de éxitos de todo el mundo y nominaciones a los Grammy, aquí en tabs fáciles, te queremos dejar unos momentos en tablatura del tema con el que homenajeaban al desaparecido Lemmy Kilmister.
  Hemos encontrado alguna tablatura por ahí circulando pero no podíamos dejar de publicar este momento en éste vuestro blog de tabs fáciles.
  Un saludo.
  TabsFácil.






Murder one. Metallica.


1.--------------------------------------------------------|
2.--------------------------------------------------------|
3.------0-----0-------0------0------0------0------0-----0-|
4.---4------5------10------9------4------5------10----9---|
5.-2------3------8-------7------2------3------8-----7-----|
6.--------------------------------------------------------|

   
(0:51)  
1.-------------------------------------------------------------|
2.-------------------------------------------------------------|
3.-------------------------------------------------------------|
4.---4--------4-3----4--------4-3----4--------4-3--4--4--5---2-|
5.--------------3---------------3---------------3--2--2--3---0-|
6.-2---2--0h2------2---2--0h2------2---2--0h2------------------|
                                                                              
                                                              
1.-----------------------------------------------------------------|
2.-----------------------------------------------------------------|
3.-----------------------------------------------------------------|
4.---4---------4-3---4--------4-3----4--------4-3----4-------------|
5.---------------3--------------3---------------3--3---3-3-3-5-6-5-|
6.-2---2--0h2------2---2--0h2------2---2--0h2----------------3-4-3-|
                                                                             
1.-----------------------------------------------------------------|
2.-----------------------------------------------------------------|
3.-----------------------------------------------------------------|
4.---4---------4-3----4---------4-3----4--------4-3---4---4---5--2-|
5.---------------3----------------3---------------3---2---2---3--0-|
6.-2---2---0h2------2---2--0h2-------2---2--0h2-------2---2---3----|

No hay comentarios:

Publicar un comentario