.

banners

Tabs fácil de... Jingle Bells al estilo ZZ Top. Víctor de Andrés.


  Desde hace unos días aprovechando las fechas que vienen Victor de Andrés nos propone en su Vlog una divertida interpretación del clásico navideño "Jingle Bells" al estilo de algunos de los grupos más representativos del panorama metal mundial, entre otros estilos.
  Aquí en Tablaturas fáciles te queremos dejar un momento en tablatura del vídeo en el que el genial guitarrista nos interpreta el villancico al estilo de ZZ Top.
  Esperamos que os guste y disfrutéis.
  Un saludo. 
  Tabs Fácil.



Jingle Bells al estilo de ZZ Top. Víctor de Andrés.


(1:07)

1.-----------------------------|
2.-----------------------------|
3.-------7-7--5(7)-7--7-7--5(7)
4.---5-8-----------------------|
5.-8---------------------------|
6.-----------------------------|

1.-----------------------------|
2.------6-------------6--------|
3.-7--7-----5--5(7)-7---7-5-5(7)
4.--------8--------------------|
5.-----------------------------|
6.-----------------------------|

1.-----------------------------|
2.---6--------4-4-4--4-4h3-3--3
3.-7---7-5---------------------|
4.---------8-------------------|
5.-----------------------------|
6.-----------------------------|

1.-------------11-11-10--8-8---|
2.---3-----------------------11
3.-5---3--/10------------------|
4.-----------------------------|
5.-----------------------------|
6.-----------------------------|...

No hay comentarios:

Publicar un comentario en la entrada