.

banners

Tabs fácil de... Jingle Bells al estilo de Metallica. Victor de Andrés.



  Para estas fechas que vienen Victor de Andrés nos propone en su Vlog una divertida interpretación del clásico navideño "Jingle Bells" al estilo de algunos de los grupos más representativos del panorama metal mundial, entre otros estilos.
  Aquí en Tablaturas fáciles te queremos dejar un momento en tablatura del vídeo en el que el genial guitarrista nos interpreta el villancico al estilo de Metallica.
  Esperamos que os guste y disfrutéis.
  Un saludo. 
  Tabs Fácil.





Jingle Bells al estilo de Metallica. Víctor de Andrés.


       (2:00)

1.------------------------------|
2.-13(15)-13(15)-13(15)--13(15)-|
3.------------------------------|
4.------------------------------|
5.------------------------------|
6.------------------------------|

1.-----------------------13-----|
2.-13(15)-13(15)--13(15)----11-13
3.------------------------------|
4.------------------------------|
5.------------------------------|
6.------------------------------|

1.-11-------11-------11--14-11--|
2.----13-11----13-11-----------13
3.------------------------------|
4.------------------------------|
5.------------------------------|
6.------------------------------|

1.-14-11----14-11----14---------|
2.-------13-------13----16-16-16
3.------------------------------|
4.------------------------------|
5.------------------------------|
6.------------------------------|

1.-----------------------------|
2.-16-16-15-15--18tr--16-13----|
3.--------------------------15-|
4.-----------------------------|
5.-----------------------------|
6.-----------------------------|...



No hay comentarios:

Publicar un comentario