.

banners

Tabs fácil de... Hector's hymn. HammerFall.




 Poco puedo añadir a esta manera de hacer buen heavy metal. Prometmos aquí en TabsFácil más tablaturas de HammerFall y aquí os dejo unos momentos del tema apertura del disco que espero que os guste y lo disfrutéis, nosotros, lo hemos hecho.
  Un saludo.

  TabsFácil.











Hector's hymn. HammerFall.


1.-------------------------------------------------
2.-----------4---------3-4---------4---------3-4---
3.-----5----5----5----5------5----5----5----5----5-
4.----5----5----5----5------5----5----5----5-------
5.---3----3----3----3------3----3----3----3--------
6.-------------------------------------------------

(0:32)
1.-----------------------------------------------------
2.-----------------------------------------------------
3.-----------------------------------------------------
4.---5---------------------5-6-----------------------5-
5.---3-3-3-3-3-3-3-3-3-3-3-3-3-3-3-3-3-3-3-3-3-6-6-5-3-
6.-----------------------------------------------------

1.---------------------------------------------------
2.---------------------------------------------------
3.---------------------------------------------------
4.-----------------------5-6---------------------3-5-
5.---3-3-3-3-3-3-3-3-3-3-3-3-3-3-3-3-3-3-3-3-1-1-1-3-
6.---------------------------------------------------

1.---------------------------------------------------
2.---------------------------------------------------
3.---------------------------------------------------
4.-----------------------5-6-----------------------5-
5.---3-3-3-3-3-3-3-3-3-3-3-3-3-3-3-3-3-3-3-3-6-6-5-3-
6.---------------------------------------------------

1.---------------------------------------------------
2.---------------------------------------------------
3.---------------------------------------------------
4.-----------------------5-6---------------------3-5-
5.---3-3-3-3-3-3-3-3-3-3-3-3-3-3-3-3-3-3-3-3-1-1-1-3-
6.---------------------------------------------------...

               (1:03)
1.-----------------------------------------------------
2.-----------------------------------------------------
3.-----------------------------------------------------
4.---3-3-3-3-----7-----------------7-8-------------7---
5.---1-1-1-1-----5-5-5-5-5-5-5-5-5-5-5-5-5-5-5-5-5-5-5-
6.-----------------------------------------------------

1.---------------------------------------
2.---------------------------------------
3.---------------------------------------
4.-------------7-8---3---2---3-3-2-0-0-2-
5.---5-5-5-5-5-5-5---1---0---------------
6.---------------------------------------

1.-----------------------------------------------------
2.-----------------------------------------------------
3.-----------------------------------------------------
4.---7-----------------7-8-------------7-------------7-
5.---5-5-5-5-5-5-5-5-5-5-5-5-5-5-5-5-5-5-5-5-5-5-5-5-5-
6.-----------------------------------------------------

1.-----------------------------------
2.-----------------------------------
3.-----------------------------------
4.---8---3---2---3-3-2-0-0-2---3---5-
5.---5---1---0-----------------1---3-
6.-----------------------------------

Estribillo(1:52)
1.------------------------------------------------
2.------------------------------------------------
3.------------------------------------------------
4.--------5---------2---------5----3--------------
5.---3----3----5----0----3----3----1----1-0---0-3-

6.---1---------3---------1------------------3---1-...


No hay comentarios:

Publicar un comentario en la entrada