.

banners

Tabs Fácil de... Hands o f time. Firewind.




   Para principios  del próximo y cercano 2017 está prevista la salida al mercado del octavo álbum de Firewind, la banda liderada por el guitarrista Gus G. Será éste álbum el primer disco conceptual que lanza la banda y donde se estrenará a la voz Henning Basse. El disco se llamará "Inmortals" del que ya podemos escuchar el adelanto "Hands of time."
  Aprovechamos la noticia para dejaros unos momentos en tablatura del tema, en concreto, el riff inicio, el cual esperamos que os guste y disfrutéis.
  Un saludo.
  TabsFácil.






Hands of time. Firewind.


1.-/7-5--------------/8-7-5---|
2.------8-7--7h8h7h5--------8-|
3.----------------------------|
4.----------------------------|
5.----------------------------|
6.----------------------------|

1.-5----/5-3-----2------------|
2.---7-------7-5---3--7(8)(7)-|
3.----------------------------|
4.----------------------------|
5.----------------------------|
6.----------------------------|

1.------------------2--/7-5---|
2.-5h7h5h4--4(5)(4)----------8
3.----------------------------|
4.----------------------------|
5.----------------------------|
6.----------------------------|

1.----------------------------|
2.-7--7h8h7h5----7-8-10--7-8--|
3.-------------9--------------|
4.----------------------------|
5.----------------------------|
6.----------------------------|

1.-5-7--/8-7-5---/3-5---------|
2.-------------8------7-------|
3.-----------------------2-4-5
4.----------------------------|
5.----------------------------|
6.----------------------------|

1.-----2/-5-3-----2-----------|
2.-3-5--------7-5---3--7(8)(7)
3.----------------------------|
4.----------------------------|
5.----------------------------|
6.----------------------------|

1.---------7h8h7h5---------|
2.-5h7h5h4---------8h7h5---|
3.-----------------------8-|
4.-------------------------|
5.-------------------------|
6.-------------------------|...





No hay comentarios:

Publicar un comentario en la entrada