.

banners

Tablatura fácil de...Origins. HammerFall.



  Impresionante tema de HammerFall este "Origins." Realmente como todo el disco, que no defrauda para nada, aunque tengo que reconocer que no he escuchado toda la discografía de esa magnífica banda. Lo digo porque he escuchado algún comentario bastante crítico a alguno de sus fans más acérrimos, pero creo que como todo en esta vida, es cuestión de gustos.
  Un saludo.
  TabsFácil.








 Origins. HammerFall.


(guitarra 1)
1.---------------------------------------------
2.---------------------------------------------
3.---------------------------------------------
4.---------------------------------------------
5.--5------------------------------------------
6.--3------------------------------------------

(guitarra2)
1.---------------------------------------------
2.---------------------------------------------
3.--7-7-7-5-5-5-8-7-5--------7-7-7-5-5-5-8-7-5-
4.--------------------8-7-5--------------------
5.---------------------------------------------
6.---------------------------------------------

(guitarra 1)
1.---------------------------------------------
2.---------------------------------------------
3.---------------------------------------------
4.---------8------------------------10---------
5.---------6------------------------8----------
6.---------------------------------------------

(guitarra2)
1.---------------------------------------------
2.---------------------------------------------
3.----------8-8-8-7-7-7-5-8-7-5------8-8-8-7-7-
4.---8-7------------------------8-7------------
5.-------6-------------------------------------
6.---------------------------------------------

(guitarra 1)
1.-------------------
2.-------------------
3.-------------------
4.-------------------
5.---------------5---
6.---------------3---

(guitarra2)
1.-------------------
2.-------------------
3.--7-8--------------
4.-------------3-5---
5.-------3-5-6-------
6.-------------------

(guitarra 1)
1.---------------------------------------------
2.---------------------------------------------
3.---------------------------------------------
4.---------------------------------------------
5.---------------------------5-----------------
6.---------------------------3-----------------

(guitarra2)
1.---------------------------------------------
2.---------------------------------------------
3.--7-7-7-5-5-5-8-7-5--------7-7-7-5-5-5-8-7-5-
4.--------------------8-7-5--------------------
5.---------------------------------------------
6.---------------------------------------------

(guitarra 1)
1.---------------------------------------------
2.---------------------------------------------
3.---------------------------------------------
4.---------8------------------------10---------
5.---------6------------------------8----------
6.---------------------------------------------

(guitarra2)
1.---------------------------------------------
2.---------------------------------------------
3.----------8-8-8-7-7-7-5-8-7-5------8-8-8-7-7-
4.---8-7------------------------8-7------------
5.-------6-------------------------------------
6.---------------------------------------------

(guitarra 1)
1.-------------------
2.-------------------
3.-------------------
4.-------------------
5.---------------5---
6.---------------3---

(guitarra2)
1.-------------------
2.-------------------
3.--7-8--------------
4.-------------3-5---
5.-------3-5-6-------
6.-------------------

1.----------------------------------------------
2.----------------------------------------------
3.----------------------------------------------
4.----------------------------------------------
5.--------------------5h3-----------------------
6.--3-3-3-3-3-3-3-3-3-----6h5h3-3-3-3-3-3-3-3-3-

1.----------------------------------------------
2.----------------------------------------------
3.----------------------------------------------
4.----------------------------------------------
5.--5h3-----6-6-6-6-6-6-6-6-6-6-6h5-------------
6.------6h5-------------------------8h6-8-8-8-8-

1.------------------------
2.------------------------
3.------------------------
4.------------------------
5.------------5h6h5-------
6.--8-8-8h6-8-------8h6---

1.----------------------------------------------
2.----------------------------------------------
3.----------------------------------------------
4.----------------------------------------------
5.--------------------5h3-----------------------
6.--3-3-3-3-3-3-3-3-3-----6h5h3-3-3-3-3-3-3-3-3-

1.----------------------------------------------
2.----------------------------------------------
3.----------------------------------------------
4.----------------------------------------------
5.--5h3-----6-6-6-6-6-6-6-6-6-6-6h5-------------
6.------6h5-------------------------8h6-8-8-8-8-

1.---------------------------------
2.---------------------------------
3.---------------------------------
4.------------------------5--5/7-8-
5.------------5h6h5-------3--3/5-6-
6.--8-8-8h6-8-------8h6------------...





No hay comentarios:

Publicar un comentario