.

banners

Tablatura fácil de...Going out with a bang. Scorpions.

Tabs_Facil_scorpions

  Aunque anunciaron hace ya un tiempo la despedida de la banda, Scorpions volvieron la carga con disco nuevo, y toda la parafernalia que se mueve detrás de un nuevo trabajo... 
   A continuación os dejo unos momentos en tablatura del tema que da inicio al disco, del que repito es altamente recomendable, "Going out with a bang."
   Espero que os guste y lo disfrutéis.
  Un saludo.
  TabsFácil.





Going out with a bang. Scorpions.

1.-----------------------------------
2.-----------------------------------
3.------------3--------------5(7)(5)-
4.---3/5--3-5--3-5--3-5--3/5---------
5.-----------------------------------
6.-----------------------------------

1.-----------------------------------

2.-----------------------------------
3.---3h5h3--------3------3-----------
4.---------5--3-5---3-5----5-3-5-3-0-
5.-----------------------------------
6.-----------------------------------

1.-----------------------------------

2.-----------------------------------
3.-----------------------------------
4.-----0-----------------------------
5.---3---3-1---1------5--------1-1-1-
6.-----------3---3-1--3--3-3-3-------

1.------------------

2.------------------
3.------------------
4.------------------
5.---3-3-3----------
6.----------1-1-1---...

  (0:48)

1.-------------------------------
2.-------------------------------
3.-------------------------------
4.-------------------------------
5.---3-----5-----8-----3-----5---
6.---1-----3-----6-----1-----3---

1.------------------------

2.------------------------
3.------------------------
4.---------------------5--
5.---3-----5-----8-----3--
6.---1-----3-----6--------

1.-------------------------------

2.-------------------------------
3.-------------------------------
4.-------------------------------
5.---3-----5-----8-----3-----5---
6.---1-----3-----6-----1-----3---


1.------------------------

2.------------------------
3.------------------------
4.---------------8-----5--
5.---3-----5-----6-----3--
6.---1-----3--------------...




No hay comentarios:

Publicar un comentario en la entrada